Song name
# A B C D E F G H I J K L M N O P Q R S T U V W X Y Z

Chickenfoot - Turnin Left tab

alright this is just the intro but its 100% correct

e|-------------------------------------|
b|-------------------------------------|
g|-------------------------------------|
d|-------------------------------------|
a|-4----------4----------7h8-6--44-----|
e|---66666666---66666666-----------6---|
     pm......  pm.......

then the lower part

e|--------------------------------------|
b|--------------------------------------|
g|--------------------------------------|
d|--------------------------------------|
a|--------------------2h3-1-------------|
e|-4-111111--4-666666--------44-1-------|
     pm....
and thats it
Tap to rate this tab
 
# A B C D E F G H I J K L M N O P Q R S T U V W X Y Z