Song name
# A B C D E F G H I J K L M N O P Q R S T U V W X Y Z

Chickenfoot - Soap On A Rope tab

E 12-12-12--12-12-12--12-12-12--12-12-12--12-12-12--12-12-12--12/(5)--------|
B --------------------------------------------------------------------------|
G 12-12-12--12-12-12--12-12-12--12-12-12--12-12-12--12-12-12--12/(5)--------|
D --------------------------------------------------------------------------|
A --------------------------------------------------------------------------|
E --------------------------------------------------------------------------|


E 15b16---12----------------------------------------------------------------|
B -----------15--12---------------------------------------------------------|
G -------------------14--13-------------------------------------------------|
D ---------------------------14--12-----------------------------------------|
A -----------------------------------14--12--10--12--10----------10--12~~~--|
E -------------------------------------------------------12--10-------------|


E --------------------------------------------------------------------------|
B --------------------------------------------------------------------------|
G --------------------------------------------------------------------------|
D --------------------12--12--12--12--------7-----6-------------------------|
A --10b12b10~--12/14---------------------------7-----8--7----5--7--8~~~-----|
E ---------------------------------------------------------7---x------------|


E -------12------12-------12------12----12--15p12--15p12--12------------12--|
B -15b17----15b17---15b17----15b17----15---------15-----15--15p12--15b17----|
G --------------------------------------------------------------------------|
D --------------------------------------------------------------------------|
A --------------------------------------------------------------------------|
E --------------------------------------------------------------------------|

E -12--17p12--15p12---15h17p15p12--12h15h17p15p12--19p12--17h19p17p12-17p12-|
B -----------------15------------15-----------------------------------------|
G --------------------------------------------------------------------------|
D --------------------------------------------------------------------------|
A --------------------------------------------------------------------------|
E --------------------------------------------------------------------------|

E -15h17p15p12--15p12--14h15p14p12------------------------------------------|
B ---------------------------------15p12--14h15p14p12--15p12--14h15p14p12---|
G --------------------------------------------------------------------------|
D --------------------------------------------------------------------------|
A --------------------------------------------------------------------------|
E --------------------------------------------------------------------------|

E -------------------------------------12-------------------------------------|
B ----12h14-----------------------------------12------------------------------|
G -15-------16p15p12--15p14p12------------------12h14----------14p12----------|
D -----------------------------0h12h14----14----------14p12h14----------------|
A ----------------------------------------------------------------------------|
E ----------------------------------------------------------------------------|

E --------------------------------------------------------------------------|
B --------------------------------------------------------------------------|
G --------------------------------------------------------------------------|
D -------------------------------12/14~~~~----------------------------------|
A -14/12--10----10---12----10-----------------------------------------------|
E -----------12-------------------------------------------------------------|
Tap to rate this tab
 
# A B C D E F G H I J K L M N O P Q R S T U V W X Y Z