Song name
# A B C D E F G H I J K L M N O P Q R S T U V W X Y Z

Chickenfoot - Bigfoot tab

Chickenfoot - 'Big Foot'
First single from 'Chickenfoot III'
Eb Tuning
tabbed by jjhand for ultimate-guitar.com

Here's my take on the new song Bigfoot. It has a great beat like most 
Chickenfoot, and a nice heavy guitar by Satch. Please rate/comment.  


Main Riff - played 2x
eb|-------------------------|-------------------------|-------------------------|
Bb|-------------------------|-------------------------|-------------------------|
Gb|-------------------------|-------------------3-----|-------------------------|
Db|----3h5---------------3h5|---3h5-------------3-----|---3h5----------------3h5|
Ab|-------------------3h5---|-------------------1-----|-------------------3h5---|
Eb|-3------3--3--3--3-------|-3------3--3--3--3-------|-3------3--3--3--3-------|



2 parts for riff ending -

   original guitar
e|--------------------3--------| add mutes throughout
B|-------------1-------------5-| especially on last note
G|------3----3------5------5---|
D|----5----------3-------------|
A|--------1-------------3------| 
E|-3---------------------------|
 |
 | overdub
e|-3------3------3------3------|
B|-3------3------3------3------|
G|-3------3------5------5------|
D|-----------------------------|
A|-----------------------------|
E|-----------------------------|




Verse - played 2x with PM's throughout

|--------------------------|-------------------------|--------------------------|
|--------------------------|--------------------3----|-3_____-3-----------------|
|--------------------------|--------------------3----|-3_____-3-----------------|
|--------------------------|-------------------------|--------------------------|
|--------------------------|-------------------------|--------------------------|
|-3--3--3--3--3--3--3-3-3-3|-3-3-3--3--3--3--3------3|----3-3---3--3--3--3-3-3-3|

1. "Wake up in the mornin   In the middle of the night   flash by the mirror, makin"
2. "Can't do it on my own   on the back of your neck   in between your legs, baby"


|-------------------------------|
|-------------------------------|
|-------------------------------|
|-------------------------------|
|-------------------------------|
|-3---3-3-/6--6-6-1--1-1-0--0-0-|

1 "sure I'm lookin' right,     uh"
2 "you won't forget me, nah"





Pre Chorus/Chorus
e|--------------------------|----------------------------|
B|--------------------------|----------------------------|
G|--------------------------|----------------------------|
D|-5--5--7--7--5----5-5-5-5-|---------------------3h5----|
A|-3--3--3--3--3----3-3-3-3-|-8--8--8--8--5-3h4h5--------|
E|--------------------------|-6--6--6--6--3-----------3--|

  "Don't you worry,      its gonna be alright"

e|--------------------------|----------------------------|
B|--------------------------|----------------------------|
G|-------------3--3---------|----------------------------|
D|-5--5--7--7--5--5--7------|---------------------3h5----|
A|-3--3--3--3--3--3--3--x-x-|-8--8--8--8--5-3h4h5--------|
E|--------------------------|-6--6--6--6--3-----------3--|

  "I'm in a hurry  I'm gonna drive all night"

e|--------------------------|----------------------------|
B|--------------------------|----------------------------|
G|--------------------------|----------------------------|
D|-5--5--7--7--5--5--7-7----|---------------------3h5----|
A|-3--3--3--3--3--3--3-3--3-|-8--8--8--8--5-3h4h5--------|
E|--------------------------|-6--6--6--6--3-----------3--|

  "I'll be there in the morning, you can bet your ass"

e|--------------------------|----------------------------|
B|--------------------------|-8-----8-----8-----8--------|
G|-7-----7-----7-----7------|-10----10----10----10-------|
D|-7-----7-----7-----7------|-10----10----10----10-------|
A|-5-----5-----5-----5------|-8-----8-----8-----8--------|
E|--------------------------|----------------------------|

 "I've got my hands on the wheel and my bigfoot on the gas"





Play Main Riff again


Play Verse Again similarly for Verse 2


Play PreChorus/Chorus again - same lyrics


(1:49) Play Main Riff




Break before Solo
|--------------------------------|
|--------------------------------|
|--------------------------------|
|--------------------------------| played 2x
|--------------------------------|
|---3-6-3-6-3---3-6-6-3-6--3-6-3-|

|---------------------------------|
|---------------------------------|
|---------------------------------|
|-----0---0-------0-0---0_----0---| played 2x (2 guitars)
|---1-1-1-1-1---1-1-1-1-1_--1-1-1-|     no ringing
|---3---3---3---3-----3-----3---3-|


this part has harmonized overdubs - multiple guitars or harmonizer for sure
|---------------------------------|---------------------------------|
|---------------------------------|---------------------------------|
|---------------------------------|-----2---2-------2-2---2-----2---|
|-----3---3-------3-3---3-----3---|---3-3-3-3-3---3-3-3-3-3---3-3-3-|
|---5---5---5---5-----5-----5---5-|---5---5---5---5-----5-----5---5-|
|---------------------------------|---------------------------------|

|---------------------------------|-----0---0-------0-0---0-----0---|
|-----1---1-------1-1---1-----1---|---1-1-1-1-1---1-1-1-1-1---1-1-1-|
|---2-2-2-2-2---2-2-2-2-2---2-2-2-|---2-2-2-2-2---2-2-2-2-2---2-2-2-|
|---3-3-3-3-3---3-3-3-3-3---3-3-3-|---3-3-3-3-3---3-3-3-3-3---3-3-3-|
|---5---5---5---5-----5-----5---5-|---5---5---5---5-----5-----5---5-|
|---------------------------------|---------------------------------|



Solo - 

|--------------------------------------------------------------------|
|-16p13p11-16p13p11-16p13p11-16p13p11-16p13p11-16p13p11-16p11-11tr15-|
|--------------------------------------------------------------------|
|--------------------------------------------------------------------|
|--------------------------------------------------------------------|
|--------------------------------------------------------------------|

|------------------------------------------------|
|------------------------------------------------|
|---------12-------------------------------------|
|-12h14h15--14h15p14p12-12h14h15-12h14h15--------|
|----------------------------------------/12-/12-|
|------------------------------------------------|

|---------------------------------|-------------------------------------8-|
|---------------------------------|--------------8~----8-8---8-8-------8--|
|---10-8~-------------------------|--------------8~----8-8---8-8--10b12---|
|-----------10-8---8--------------|--------8-10------10-------------------|
|-12------------10--10-9-8--------|-8--8-10----10-------------------------|
|-------------------------11-8-11-|--11-----------------------------------|

|------8------------13b15______--|-b15-13-11-13b15r13-11-13b15-b15~-----|
|-11b13-11b13--------------------|--------------------------------------|
|--------------------------------|--------------------------------------|
|--------------------------------|--------------------------------------|
|--------------------------------|--------------------------------------|
|--------------------------------|--------------------------------------|


|------------------------------|-20b23r20---20b23~~~~~~-------------|
|-16---16-----16---16---16~----|------------------------------------|
|-17---17--17-17---17---17~----|------------------------------------|
|------------------------------|------------------------------------|
|------------------------------|------------------------------------|
|------------------------------|------------------------------------|



Play Verse Again

Play Chorus Again

Play Main Riff 2x

Play the harmonized part in the Break section to end the song




KEY
************************************

| /   slide up
| \   slide down
| h   hammer-on
| p   pull-off
| ~   vibrato
| +   harmonic
| x   Mute note
| b   Bend
| r   Bend release

************************************
Tap to rate this tab
# A B C D E F G H I J K L M N O P Q R S T U V W X Y Z