Song name
# A B C D E F G H I J K L M N O P Q R S T U V W X Y Z

Chickenfoot - Up Next tab

Chickenfoot - Up Next

D# Tuning (half step down)
My first tab, so there might faults in timing, but I this song isn't hard rhytmically. I 
will be continuously completing it
Intro: Play two times

e|-------------------------|-------------------------|
B|-------------------------|-------------------------|
G|-------------------------|-------------------------|
D|-----------5-------------|-----------5-------------|
A|------5h7---------5h7--7-|------5h7---------5h7--7-|
E|-0h7----------0h7--------|-0h7----------0h7--------|

e|-------------------------|-------------------------|
B|-------------------------|-------------------------|
G|-------------------------|-------------------------|
D|-----------5-------------|-----------5----7--5--2--|
A|------5h7---------5h7--7-|------5h7-------7--5--2--|
E|-0h7----------0h7--------|-0h7------------5--3--0--|
Tap to rate this tab
# A B C D E F G H I J K L M N O P Q R S T U V W X Y Z