Song name
# A B C D E F G H I J K L M N O P Q R S T U V W X Y Z

Chickenfoot - Come Closer tab

-----------------------------------------------------------------------------
			  "COME CLOSER" - Chickenfoot
-----------------------------------------------------------------------------
Tabbed by: Slimsaidi

Tuning: STANDARD


INTRO:
"Sidewalk blind, an old tin cup,
Lookin down I can't look up
Long gone ain't comin back
It's later than I want it to be
And long cold nights without much sleep
Miss you babe
Come closer...
e|----7----|----9----|
B|----9----|----9----|
G|----8----|----6----|
D|----6----|----6----| [x8]
A|---------|---------|
E|---------|---------|


You gotta run downtown
You gotta jump online
Got something goin all the time
Where you goin baby?
Got kids bringin in problems
We got problems of our own
I'm worried babe
Bout goin the distance...
e|----7----|----9----|----7----|----9----|
B|----9----|----9----|----9----|----9----|
G|----8----|----6----|----8----|----6----|
D|----6----|----6----|----x----|----6----| [x2]
A|---------|---------|----7----|---------|
E|---------|---------|---------|---------|

Come closer
Come closer to me
Baby come closer to me
e|----7----|----9----|
B|----9----|----9----|
G|----8----|----6----|
D|----6----|----6----| [x4]
A|---------|---------|
E|---------|---------|

Lead:
e|--------------------------------------|
B|-------9-----------------7---5--------|
G|--/8--------8h9p8-/-6-----------------|
D|--------------------------------------|
A|--------------------------------------|
E|--------------------------------------|

A guitar, a song, and a sleeping bag
The moon, the stars, that's all we had
I sure miss that babe
You got your space
And I got mine
Got nothing to say most all the time
Feel you slippin away
e|----7----|----9----|----7----|----9----|
B|----9----|----9----|----9----|----9----|
G|----8----|----6----|----8----|----6----|
D|----6----|----6----|----x----|----6----| [x2]
A|---------|---------|----7----|---------|
E|---------|---------|---------|---------|

Come closer
Now come closer to me
Baby come closer
I need you
e|----7----|----9----|
B|----9----|----9----|
G|----8----|----6----|
D|----6----|----6----| [x4]
A|---------|---------|
E|---------|---------|

Lead:
e|--------------------------------------|
B|-------9-----------------7---5--------|
G|--/8--------8h9p8-/-6-----------------|
D|--------------------------------------|
A|--------------------------------------|
E|--------------------------------------|

Chorus:


   B                    F#
Oh all my life I wanted someone like you

G#m          D#m      E
To stand by me.....Oh Baby

       C#m         G#m    G#m
I want you to come closer yeah


[Legend]
     B       F#     G#m     D#m      E      C#m     G#m
e|-------|---2---|---4---|---6---|---0---|---4---|---4---|
B|---4---|---2---|---4---|---7---|---0---|---5---|---4---|
G|---4---|---3---|---4---|---8---|---1---|---6---|---4---|
D|---4---|---4---|---6---|---8---|---2---|---6---|---6---|
A|---2---|---4---|---6---|---6---|---2---|---4---|---6---|
E|-------|---2---|---4---|-------|---0---|-------|---4---|


SOLO!
Note: Joe Satriani is using an octave pedal here, but I don't know whether he's playing
the lower octave and combining it with an octave higher on the pedal, or playing the
solo on the higher octave and combining the pedal at an octave lower...or maybe he's 
doing something else and I'm just wrong :/ haha. But I figured this out by ear to sound 
like the
same effect as the solo if you blend it with an octave down:

e|------11--14-------11--14-------11--14-------11--14-------11--14--------|
B|--12-----------12-----------12-----------12-----------12----------(12)--|
G|------------------------------------------------------------------------|
D|------------------------------------------------------------------------|
A|------------------------------------------------------------------------|
E|------------------------------------------------------------------------|

e|------9--14-------9--14-------9--14-------9--14-------9--14-------------|
B|--11----------11----------11----------11----------11----------(11)------|
G|------------------------------------------------------------------------|
D|------------------------------------------------------------------------|
A|------------------------------------------------------------------------|
E|------------------------------------------------------------------------|

e|------11--16-------11--16-------11--16-------11--16-------11--16--------|
B|--12-----------12-----------12-----------12-----------12----------(12)--|
G|------------------------------------------------------------------------|
D|------------------------------------------------------------------------|
A|------------------------------------------------------------------------|
E|------------------------------------------------------------------------|


e|------14-------11--14-------11--14--------11--14-------11--14------(14)-|
B|--11-------11-----------11-----------11------------11-----------11------|
G|------------------------------------------------------------------------|
D|------------------------------------------------------------------------|
A|------------------------------------------------------------------------|
E|------------------------------------------------------------------------|


e|------16-------12--16-------12--16-------12--16-------12--16------(16)--|
B|--12-------12-----------12-----------12-----------12-----------12-------|
G|------------------------------------------------------------------------|
D|------------------------------------------------------------------------|
A|------------------------------------------------------------------------|
E|------------------------------------------------------------------------|

e|------16-------12--16-------12--16-------12--16-------12--16-----------|
B|--14-------14-----------14-----------14-----------14-----------14------|
G|-----------------------------------------------------------------------|
D|-----------------------------------------------------------------------|
A|-----------------------------------------------------------------------|
E|-----------------------------------------------------------------------|


and then...he most bad ass lick of any Chickenfoot tune:
-19b21-19---16-------------------|------------------------------------------|
--------------19-16--------------|------------19-----------------------19b21|
--------------------18-16-----16-|-18-16---18b--br18-16---18-16-18-16-------|
--------------------------18-----|------------------------------------------|
---------------------------------|------------------------------------------|
---------------------------------|------------------------------------------|


Chorus:

B                F#           G#m
Every day I wake up I tell myself

  D#m                 E       C#m
I need you by my side....so badly

         G#m
Now come closer


     B                     F#
Ahhh when I think about you

     G#m               D#m         E          C#m
Oh I fall down on my knees and beg you, I beg you

        G#m
To come [closer, yeah]"

  [closer, yeah...]
e|-----------------|
B|-----------------|
G|---6p4-----------|
D|---------6p4h6~--|
A|-----------------|
E|-----------------|


Outro:

Keep repeating:
e|----7----|----9----|
B|----9----|----9----|
G|----8----|----6----|
D|----6----|----6----|
A|---------|---------|
E|---------|---------|

Lead:
e|--------------------------------------|
B|-------9-----------------7---5--------|
G|--/8--------8h9p8-/-6-----------------|
D|--------------------------------------|
A|--------------------------------------|
E|--------------------------------------|


May the Funk Be With You,
E



************************************

| /   slide up
| \   slide down
| h   hammer-on
| p   pull-off
| ~   vibrato
| +   harmonic
| x   Mute note
| b   Bend
| pb  Pre-bend
| br  Bend release
| pbr Pre-bend release
| brb Bend release bend

************************************
Tap to rate this tab
# A B C D E F G H I J K L M N O P Q R S T U V W X Y Z