Song name
# A B C D E F G H I J K L M N O P Q R S T U V W X Y Z

Chickenfoot - Up Next tab

Tune down to eb, these are all the key riffs to the song, most repeat

|--------------------------------------------------------|
|--------------------------------------------------------|
|--------------------------------------------------------|
|------------5----------------------------5--------------|
|-5h6h7-7-------5h6h7-7----7---5h6h7-7--------5----7-----|
|----------0------------0--------------0----00--00-------|


--------------------------------------------------------|
--------------------------------------------------------|
--------------------------------------------------------|
------------5----------------------------5----7--5--2---|  X2
-5h6h7-7-------5h6h7-7----7---5h6h7-7---------7--5--2---|
----------0------------0--------------0-------5--3--0---|


|---------------------------------|
|---------------------------------|
|---------------------------------|
|-2-2-2-2-2-2-2-2-----2-2-2-2-----|
|---------------------------------|
|0-0-0-0-0-0-0-0----0-0-0-0-------|
                    When I arrive, at the Pearly Gates...

|--------------------------------|
|--------------------------------|
|--------------------------------|
|---5--5----7--------------------|
|--------------------------------|
|0-3--3-0-5--5-5h6p5-0-----------|

Gotta have, my swimsuit on


|---------------------------------|
|---------------------------------|
|---------------------------------|
|---2-2-2-2-----------------------|
|---------------------------------|
|--0-0-0-0------------------------|
Flip flops, and a pair of shades

--------------------------------|
--------------------------------|
--------------------------------|
---5--5----7--------------------|
--------------------------------|
0-3--3-0-5--5-5h6p5-------------|

And ask the Choir if I can sing along


|--------------------------|
|--------------------------|
|--------------------------|
|--------------------------|
|--------------------------|
|-5-6-5-3-0--5-6-6-5-3-0---|

Yeah! Woo! Yeah! Yeah!


Then the chorus...
|------------------------|
|------------------------|
|------------------7-----|
|-----5-5-5-5-5-5--7-7-2-|
|-----5-5-5-5-5-5--5-7-2-|
|-----3-3-3-3-3-3----5-0-|
  I'm in the sun
|---------------------------------------------------------0-|
|---------------------------------------------------------0-|
|---------------12-7--------------------------------7-------|
|5-5-5-5-5-5----12-7-7---7-7-7-7-7-7----10-10-10-10-7-7-2---|
|5-5-5-5-5-5----10-5-7---7-7-7-7-7-7----10-10-10-10-5-7-2---|
|3-3-3-3-3-3---------5---5-5-5-5-5-5----8--8--8--8----5-0---|
 I might be the one                      Maybe I'm, oh no...



|------------------------------------------|
|------------------------------------------|
|------------------7-----------------------|
|-----5-5-5-5-5-5--7-7-9--9-9-9-9-9-9-9-9--|
|-----5-5-5-5-5-5--5-7-9--9-9-9-9-9-9-9-9--|
|-----3-3-3-3-3-3----5-7--7-7-7-7-7-7-7-7--|

In the front of the line...

Rhythm during solo
|----------------|
|----------------|
|----------------|
|----------------|
|--3-------------|
|0---5-6-7-3-0---|

Alternate pick each note above (listen to song for rhythm)

The rest of the riffs repeat


Theres my quick tab of Up Next, Satch is god!
Tap to rate this tab
# A B C D E F G H I J K L M N O P Q R S T U V W X Y Z