Song name
# A B C D E F G H I J K L M N O P Q R S T U V W X Y Z

Chicosci - Off With Her Head tab

xxxnikokills999xxx

OFF WITH HER HEAD.
-FLY BLACK HEARTS

Uhm Wlang Gaanong lead part tong tab na toh kc d ko pa alam xD
enjoy xD

drop C

intro

e|------------|
B|------------|
G|------------|
D|----7-------|
A|----7-------|
D|----7-------|
 tloy tloy hanngang dmating sa verse 



Tas Verse 2X
e|---------------------------------------|
B|---------------------------------------|
G|---------------------------------------|
D|--7---7-----3---3---0---0----3---3-----|
A|--7-7-7-----3-3-3---0-0-0----3-3-3-----|
D|--7-7-7-----3-3-3---0-0-0----3-3-3-----|
    X X X     X X X   X X X    X X X 

Tas 

e|------------|
B|------------|
G|-------9b---|
D|-------9b---|
A|-----7------|
D|-----7------|

chorus

e|----------------------------------|
B|----------------------------------|
G|---------------5------------------|
D|---7-----------5-(8x)--3----------|
A|---7-(8x ata)--3-------3--(8x)----|
D|---7-------------------3----------|


TAS Blik Sa Verse Tpos Ung Nxt Chorus  2times na
after ng 2chorus 
eto 


bridge
e|----------------|
B|----------------|
G|--8---6---4-----|
D|--8---6---4-----|
A|----------------|
D|----------------|

pus
Gtr1
e|-----------------------|
B|--12-11-9-ulit ulit lng|
G|-----------------------|
D|-----------------------|
A|-----------------------|
D|-----------------------|

Gtr.2
Am-F
mga 6tyms cguro 
tapos

ung nxt

e|-----------------------|
B|-----------------------|
G|-----------------------|
D|--333--333-------------|
A|--333--333-------------|
D|--333--333-------------|


tapos Chorus Ulit

and then 
ung part na U never did ung sgawan 

Am lng ung chords


ayan tpos na 
Sunod sunod na yan xD 
LOCK AND LOAD..\m/
Tap to rate this tab
# A B C D E F G H I J K L M N O P Q R S T U V W X Y Z