Song name
# A B C D E F G H I J K L M N O P Q R S T U V W X Y Z

Chicosci - Diamond Shotgun tab

Tuning - Standard (e b g d A E)


CHICOSCI - Diamond Shotgun (lock and load)

Tabbed by Francis
09283150081
SHC Lucena
email:f_sario@yahoo.com

Intro:
GtrI
|---------------------------------------------------------------|
|---------------------------------------------------------------|
|---9-9-xx--9-9-xx--9-9-xx--9-9-xx--9-9-xx--9-9-xx--9-9-xx------|
|---------------------------------------------------------------|2x
|---7-7-xx--7-7-xx--7-7-xx--7-7-xx--7-7-xx--7-7-xx--7-7-xx------|
|---------------------------------------------------------------|

Verse:
GtrI
|---------------------------------------------------------------|
|---------------------------------------------------------------|
|---9-9-xx--9-9-xx--9-9-xx--9-9-xx--9-9-xx--9-9-xx--9-9-xx------|
|---------------------------------------------------------------|
|---7-7-xx--7-7-xx--7-7-xx--7-7-xx--7-7-xx--7-7-xx--7-7-xx------|
|---------------------------------------------------------------|
|   GtrII
|---------------------------------------------------------------|
|---------------------------------------------------------------|
|---------------------------------------------------------------|
|-2-2--2-2--2-2--9-9--11-11--9~--2-2--2-2--2-2--9-9--11-11--9~--|2x
|-2-2--2-2--2-2--9-9--11-11--9~--2-2--2-2--2-2--9-9--11-11--9~--|
|-0-0--0-0--0-0--7-7--9--9---7~--0-0--0-0--0-0--7-7--9--9---7~--|


Chorus:
  GtrI
|---------------------------------------------------------------|
|-------------------------------------(elevens)-----------------|
|-66666666666-6688-9999999999999999-111111111111111111---6-8----|
|---------------------------------------------------------------|
|-44444444444-4466-7777777777777777-99999999999999999----4-6----|
|---------------------------------------------------------------|
|   GtrII
|---------------------------------------------------------------|
|---------------------------------------------------------------|
|-6666666666666666-9999999999999999-44444444444444444-----------|
|-6666666666666666-9999999999999999-44444444444444444----7-9----|
|-4444444444444444-7777777777777777-22222222222222222----7-9----|
|--------------------------------------------------------5-7----|

II

GtrI
|---------------------------------------------------------------|
|---------------------------------------------------------------|
|---9-9-xx--9-9-xx--9-9-xx--9-9-xx--9-9-xx--9-9-xx--9-9-xx------|
|---------------------------------------------------------------|2x
|---7-7-xx--7-7-xx--7-7-xx--7-7-xx--7-7-xx--7-7-xx--7-7-xx------|
|---------------------------------------------------------------|
|   GtrII
|---------------------------------------------------------------|
|---------------------------------------------------------------|
|---------------------------------------------------------------|
|--2------------------------------------------------------2-----|
|--2------------------------------------------------------2-----|
|--0------------------------------------------------------0-----|

Verse2:
GtrI
|---------------------------------------------------------------|
|---------------------------------------------------------------|
|-99-xx-99-xx-99----------------99-xx-99-xx-99------------------|
|-99-xx-99-xx-99--9-9--11-11-9--99-xx-99-xx-99--9-9--11-11--9---|
|-77-xx-77-xx-77--9-9--11-11-9--77-xx-77-xx-77--9-9--11-11--9---|
|-----------------7-7--9--9--7------------------7-7--9--9---7---|
|
|---------------------------------------------------------------------------|
|-----------------------------------------------------------------------9+~-|
|-99-xx-99-xx-99----------------99-xx-99-xx-99--1111111111-131313131313-9+~-|
|-99-xx-99-xx-99--9-9--11-11-9--99-xx-99-xx-99--------------------------9+~-|
|-77-xx-77-xx-77--9-9--11-11-9--77-xx-77-xx-77--9-9-9-9-9--111111111111-----|
|-----------------7-7--9--9--7----------------------------------------------|
|   GtrII
|---------------------------------------------------------------|
|---0--------0----------------------0--------0------------------|
|-----1~--------1~----1h2p1-----------1~-------1~----1h2p1------|
|-2-------2---------2-------------2-------2--------2------------|2x
|---------------------------------------------------------------|
|---------------------------------------------------------------|

then
GtrI
|---------------------------------------------------------------|
|---------------------------------------------------------------|
|---9-9-xx--9-9-xx--9-9-xx--9-9-xx--9-9-xx--9-9-xx--9-9-xx------|
|---------------------------------------------------------------|
|---7-7-xx--7-7-xx--7-7-xx--7-7-xx--7-7-xx--7-7-xx--7-7-xx------|
|---------------------------------------------------------------|
|   GtrII
|---------------------------------------------------------------|
|---------------------------------------------------------------|
|---------------------------------------------------------------|
|--------------------2~-----------------------------------------|
|--------------------2~-----------------------------------------|
|--------------------0~-----------------------------------/12\0-|

Verse2:
GtrI
|---------------------------------------------------------------|
|---------------------------------------------------------------|
|---9-9-xx--9-9-xx--9-9-xx--9-9-xx--9-9-xx--9-9-xx--------------|
|---------------------------------------------------------------|
|---7-7-xx--7-7-xx--7-7-xx--7-7-xx--7-7-xx--7-7-xx--------------|
|---------------------------------------------------------------|
|   GtrII
|---------------------------------------------------------------|
|---0--------0----------------------0--------0------------------|
|-----1~--------1~----1h2p1-----------1~-------1~----1h2p1------|
|-2-------2---------2-------------2-------2--------2------------|
|---------------------------------------------------------------|
|---------------------------------------------------------------|

Chorus:
  GtrI
|-------------------------------------------------------------------------|
|-------------------------------------(elevens)---------------------------|
|-66666666666-6688-9999999999999999-111111111111111111--9999999999999999--|
|-------------------------------------------------------------------------|
|-44444444444-4466-7777777777777777-99999999999999999---7777777777777777--|
|-------------------------------------------------------------------------|
|   GtrII
|-------------------------------------------------------------------------|
|-------------------------------------------------------------------------|
|-6666666666666666-9999999999999999-44444444444444444---2222222222222222--|
|-6666666666666666-9999999999999999-44444444444444444---2222222222222222--|
|-4444444444444444-7777777777777777-22222222222222222---0000000000000000--|
|-------------------------------------------------------------------------|
    GtrI
|-----------------------------------------------------------|
|-------------------------------------(elevens)-------------|
|-6-6-6-6-6-6-6-66-88--9-9-9-9-9-9-9-9--111111111111111111--|
|-----------------------------------------------------------|
|-4-4-4-4-4-4-4-44-66--7-7-7-7-7-7-7-7--9-9-9-9-9-9-9-9-9---|
|-----------------------------------------------------------|
|   GtrII
|-------------------------------------------------------|
|-------------------------------------------------------|
|-6-6-6-6-6-6-6-6--9-9-9-9-9-9-9-9--4-4-4-4-4-4-4-4-4---|
|-6-6-6-6-6-6-6-6--9-9-9-9-9-9-9-9--4-4-4-4-4-4-4-4-4---|
|-4-4-4-4-4-4-4-4--7-7-7-7-7-7-7-7--2-2-2-2-2-2-2-2-2---|
|-------------------------------------------------------|

then
GtrI
|---------------------------------------------------------------|
|---------------------------------------------------------------|
|---9-9-xx--9-9-xx--9-9-xx--9-9-xx--9-9-xx--9-9-xx--------------|
|---------------------------------------------------------------|
|---7-7-xx--7-7-xx--7-7-xx--7-7-xx--7-7-xx--7-7-xx--------------|
|---------------------------------------------------------------|
|   GtrII
|---------------------------------------------------------------|
|---------------------------------------------------------------|
|---------------------------------------------------------------|
|--2-------------------------2~---------------------------------|
|--2-------------------------2~---------------------------------|
|--0-------------------------0~---------------------------------|


Bridge:(2:25-2:42)
Lock and Load...
  GtrI
|---------------------------------------------------------------|
|---------------------------------------------------------------|
|-9-9-9-9-9-9-9-9-9-9-9-9-9-9-8-8-8-8-8-8-8-9-9-9-9-9-9-9-9-9---|
|---------------------------------------------------------------|
|-7-7-7-7-7-7-7-7-7-7-7-7-7-7-6-6-6-6-6-6-6-7-7-7-7-7-7-7-7-7---|
|---------------------------------------------------------------|
|   GtrII
|---------------------------------------------------------------|
|---------------------------------------------------------------|
|---------------------------------------------------------------|
|-2---2---2---2---2---2---2---2---2---2---2---2---2---2---2---2-|
|-2---2---2---2---2---2---2---2---2---2---2---2---2---2---2---2-|
|-0---0---0---0---0---0---0---0---0---0---0---0---0---0---0---0-|


GtrII(2:40)
|-14-11-12-11---------------------------------------------------|
|-------------12------------------------------------------------|
|-----------------11--13~---------------------------------------|
|---------------------------------------------------------------|
|---------------------------------------------------------------|
|---------------------------------------------------------------|

Last Chorus:
fly black jearts into the...
  GtrI
|---------------------------------------------------------------|
|---------------------------------------------------------------|
|-4-----4-------4-------4-------4-------------------------------|
|-----2---2---2---2---2---2---2---------------------------------|
|---4-------4-------4-------4-----------------------------------|
|---------------------------------------------------------------|
|   GtrII
|----------------------7d~--------------------------------------|
|--------------------------9d~----------------------------------|
|------------------------------9d~------------------------------|
|----------------------------------9d~--------------------------|
|---------------------------------------------------------------|
|---------------------------------------------------------------|
then--sky....
  GtrI
|-------------------------------------------------------------------------|
|-------------------------------------(elevens)---------------------------|
|------------------9999999999999999-111111111111111111--9999999999999999--|
|-------------------------------------------------------------------------|
|------------------7777777777777777-99999999999999999---7777777777777777--|
|-------------------------------------------------------------------------|
|   GtrII
|-------------------------------------------------------------------------|
|-------------------------------------------------------------------------|
|------------------9999999999999999-44444444444444444---2222222222222222--|
|------------------9999999999999999-44444444444444444---2222222222222222--|
|------------------7777777777777777-22222222222222222---0000000000000000--|
|-------------------------------------------------------------------------|

Chorus:
  GtrI
|-----------------|--------------------------------------------------------|
|-----------------|--------------------(elevens)---------------------------|
|-4h6-4h6-4h6-4h6-|-9999999999999999-111111111111111111--9999999999999999--|
|---(do-4x)-------|--------------------------------------------------------|
|-----------------|-7777777777777777-99999999999999999---7777777777777777--|
|-----------------|--------------------------------------------------------|
|   GtrII
|-------------------------------------------------------------------------|
|-------------------------------------------------------------------------|
|-6666666666666666-9999999999999999-44444444444444444---2222222222222222--|
|-6666666666666666-9999999999999999-44444444444444444---2222222222222222--|
|-4444444444444444-7777777777777777-22222222222222222---0000000000000000--|
|-------------------------------------------------------------------------|

Outro-
Lock and Load...
  GtrI
|---------------------------------------------------------------|
|---------------------------------------------------------------|
|-9-9-9-9-9-9-9-9-9-9-9-9-9-9-8-8-8-8-8-8-8-9-9-9-9-9-9-9-9-9---|
|---------------------------------------------------------------|
|-7-7-7-7-7-7-7-7-7-7-7-7-7-7-6-6-6-6-6-6-6-7-7-7-7-7-7-7-7-7---|
|---------------------------------------------------------------|
|   GtrII
|---------------------------------------------------------------|
|---------------------------------------------------------------|
|---------------------------------------------------------------|
|-2---2---2---2---2---2---2---2---2---2---2---2---2---2---2---2-|
|-2---2---2---2---2---2---2---2---2---2---2---2---2---2---2---2-|
|-0---0---0---0---0---0---0---0---0---0---0---0---0---0---0---0-|
Tap to rate this tab
 
# A B C D E F G H I J K L M N O P Q R S T U V W X Y Z