Guitaretab - guitar tabs
Song name
# A B C D E F G H I J K L M N O P Q R S T U V W X Y Z

Chicosci - Open Casket Romance tab

                OPEN CASKET ROMANCE BY: CHICOSCI
                     TRANSCRIBED BY: freon
                VISIT ME AT: freongang_08@yahoo.com
                      freongang_81@yahoo.com

    TNX TO SONNY OF CHICOSCI,, FOR A LITTLE CONVERSATION AT YOUR GIG AT   CONVERSE SALE 
MEGATRADE HALL SM MEGAMALL,,, ASTIG KA PARE!!!

dropped D
intro:
|---------------------------------------3--3----|
|---------------------------------------1--1----|
|-----------------------------------------------|
|-----------------------------------------------|
|-----------------------------------------------|
|-0-0-0-0-1-1-1-1-1-1-1-1-1-1-1-1-1-1-----------|

verse:    (repeat)
|-----------------------------------------------------------|
|-----------------------------------------------------------|
|-4-4---4--4--4-4---4---4--5-5---5---5---5-5---5---5---4-4--|
|-4-4---4--4--4-4---4---4--5-5---5---5---5-5---5---5---4-4--|
|-2-2---2--2--2-2---2---2--3-3---3---3---3-3---3---3---2-2--|
|-----------------------------------------------------------|

                 guitarI
|-----------------------------------------------------------|
|-----------------------------------------------------------|
|-4-4---4--4--4-4---4---4--5-5---5---5---5-5---5---5---4-4--|
|-4-4---4--4--4-4---4---4--5-5---5---5---5-5---5---5---4-4--|
|-2-2---2--2--2-2---2---2--3-3---3---3---3-3---3---3---2-2--|
|-----------------------------------------------------------|

                 guitarII
|----------------------------------------------|
|----------------------------------------------|
|----------------------------------------------|
|----------------------------------------------|
|----S--C--R--A--T--H--------------------------|
|-x-x-x-x-x-x-x-x-x-x-x-x-x-x-x-x-x-x-x-x-x-x-x|

          guitarI
|-------------------------------|
|-------------------------------|
|-4-4-4-4-5-5-5-5-5-5-5-5-5-----|
|-4-4-4-4-5-5-5-5-5-5-5-5-5-----|
|-2-2-2-2-3-3-3-3-3-3-3-3-3-----|
|-------------------------------|
[ Tab from: http://www.guitaretab.com/c/chicosci/54464.html ]
           guitarII
|-----------------------11--------11-11-11-11-11-12-12-12-12--|
|-9-11---------11-----------9---------------------------------|
|-----------9-------------------------------------------------|
|-------------------------------------------------------------|
|-------------------------------------------------------------|
|-------------------------------------------------------------|

  im dying for you...  guitar I  (repeat)
|------------------11-------11------------11--|
|-9-11------11---------9-11----------9-11-----|
|---------9-----------------------------------|
|---------------------------------------------|
|---------------------------------------------|
|---------------------------------------------|

             guitarII (repeat)
|---------------------------------------|
|---------------------------------------|
|---------------------------------------|
|-3-3-3-3-5-5-5-5-6-6-6-6-6-6-6-6-6-----|
|-3-3-3-3-5-5-5-5-6-6-6-6-6-6-6-6-6-----|
|---------------------------------------|

verse:    (repeat)
|-----------------------------------------------------------|
|-----------------------------------------------------------|
|-4-4---4--4--4-4---4---4--5-5---5---5---5-5---5---5---4-4--|
|-4-4---4--4--4-4---4---4--5-5---5---5---5-5---5---5---4-4--|
|-2-2---2--2--2-2---2---2--3-3---3---3---3-3---3---3---2-2--|
|-----------------------------------------------------------|

                 guitarI
|-----------------------------------------------------------|
|-----------------------------------------------------------|
|-4-4---4--4--4-4---4---4--5-5---5---5---5-5---5---5---4-4--|
|-4-4---4--4--4-4---4---4--5-5---5---5---5-5---5---5---4-4--|
|-2-2---2--2--2-2---2---2--3-3---3---3---3-3---3---3---2-2--|
|-----------------------------------------------------------|

                 guitarII
|----------------------------------------------|
|----------------------------------------------|
|----------------------------------------------|
|----------------------------------------------|
|----S--C--R--A--T--H--------------------------|
|-x-x-x-x-x-x-x-x-x-x-x-x-x-x-x-x-x-x-x-x-x-x-x|

   JUST FOLLOW THE SEQUENCE,, ANG HIRAP IEXPLAIN SA TAB ITONG KANTA NA TO... <<<>>>
Related for Open Casket Romance tab
Advertisement will be closed in 10 seconds