Song name
# A B C D E F G H I J K L M N O P Q R S T U V W X Y Z

Chicosci - Sound And Taste Of Tears Falling Upon Your Chest tab

SONG: The Sound and Taste of Tears Falling Upon your Chest
Tuning: Tune guitar whole step down (DGCFAD) then drop d.
Intro:
D --------------------|
A --------------------|
F -777777777777-8888--|
C -555555555555-6666--|(8x)
G -555555555555-6666--|
C -555555555555-6666--|
Verse:
Gtr.1        Gtr.2
D ------     -------------------------------|
A ------     1010101010101010101010109h10p9-|
F ------     -------------------------------|
C -5-0-3(4x) -------------------------------|(4x)
G -5-0-3     -------------------------------|
C -5-0-3     -------------------------------|
Chorus:
repeat intro riff
repeat verse
Adlib:
D -----------------------------|
A -11--121110-10---------------|
F -10---------9---7--9-7910-12-|(2x)
C ---------------7-9-8------11-|
G -----------------------------|
C -----------------------------|

D ------------------------------------------|
A ------------------------------------------|
F -7777777788883333333333333333777777778888-|
C -5555555566661111111111111111555555556666-|
G -5555555566661111111111111111555555556666-|
C -5555555566661111111111111111555555556666-|
repeat adlib
D -------------------------------|
A -------------------------------|
F -7777777788883333333333333333--|
C -5555555566661111111111111111--|(2x)
G -5555555566661111111111111111--|
C -5555555566661111111111111111--|

D ---------------------------------|
A ---------------------------------|
F -10101010101010101010101010101010|
C -8-8-8-8-8-8-8-8-8-8-8-8-8-8-8-8-|
G -8-8-8-8-8-8-8-8-8-8-8-8-8-8-8-8-|
C -8-8-8-8-8-8-8-8-8-8-8-8-8-8-8-8-|

D -------------------------------|
A -------------------------------|
F -7777777788883333333333333333--|
C -5555555566661111111111111111--|
G -5555555566661111111111111111--|
C -5555555566661111111111111111--|

D ---------------------------------|
A ---------------------------------|
F -10101010101010101010101010101010|
C -8-8-8-8-8-8-8-8-8-8-8-8-8-8-8-8-|
G -8-8-8-8-8-8-8-8-8-8-8-8-8-8-8-8-|
C -8-8-8-8-8-8-8-8-8-8-8-8-8-8-8-8-|

D --------------------|
A --------------------|
F -5555555555555555---|
C --------------------|(4x)
G -3333333333333333---|
C --------------------|
repeat intro riff

gago sina alex aldaba at lester ventic ng plm! para sa mga gagong kalbo!!
Tap to rate this tab
# A B C D E F G H I J K L M N O P Q R S T U V W X Y Z