Song name
# A B C D E F G H I J K L M N O P Q R S T U V W X Y Z

Chicosci - Rolento tab

SONG: Rolento
Tuning: Tune guitar whole step down (DGCFAD) then drop d.
Intro:
D -------------|
A -------------|
F -------------|
C -0~~~~~~~~~~-|
G -0~~~~~~~~~~-|
C -0~~~~~~~~~~-|

D -------------------     ---------------|
A -------------------     ---------------|
F -------------------     ---------------|
C -0-50-05-00-5-00-5-(8x) -00000044-5-4--|
G -0-50-05-00-5-00-5-     -00000044-5-4--|
C -0-30-03-00-3-00-3-     -00000044-5-4--|
p.m.       --   --         --------------|
Verse:
D-----------------------------------------------|
A-----------------------------------------------|
F--7-7-7-7-7--5-5-5-5-5--------------7-7-7-7-7--|2x
C------------------------7-7-7-7-7----8-8-8-8---|
G---5-5-5-5----5-5-5-5----5-5-5-5---5-----------|
C-----------------------------------------------|

D -------------|
A -------------|
F -------------|
C -0~~~~~~~~~~-|
G -0~~~~~~~~~~-|
C -0~~~~~~~~~~-|
Chorus:
D -------------------|
A -------------------|
F -------------------|
C -0-50-05-00-5-00-5-|(8x)
G -0-50-05-00-5-00-5-|
C -0-30-03-00-3-00-3-|
p.m.       --   --
repeat verse & chorus
D -------------|
A -------------|
F -------------|
C -0~~~~~~~~~~-|
G -0~~~~~~~~~~-|
C -0~~~~~~~~~~-|
(3:02)
D -----------------------------------------|
A -------10-10-10-------10-10-10-----10-10-|
F -7-7-7----------7-7-7----------7-7-------|
C -----------------------------------------|(4x)
G -----------------------------------------|
C -----------------------------------------|
repeat chorus
gtr.1
D -------------------|
A -------------------|
F -------------------|
C -0-50-05-00-5-00-5-|(8x)
G -0-50-05-00-5-00-5-|
C -0-30-03-00-3-00-3-|
p.m.       --   --
gtr.2
D ---------------|
A ---------------|
F ---------------|
C -0-50-55555555-|8x)
G -0-50----------|
C -0-30-33333333-|

D -------------|
A -------------|
F -------------|
C -0~~~~~~~~~~-|
G -0~~~~~~~~~~-|
C -0~~~~~~~~~~-|

D--------------------------------------|
A--------------------------------------|
F--7-7-7-7-7--5-5-5-5-5--------------7-|
C------------------------7-7-7-7-7-----|
G---5-5-5-5----5-5-5-5----5-5-5-5---5-|
C--------------------------------------|


bahala na kayo sa pattern ng kanta, pakinggan na lamang.
para kina keith ardena, alex aldaba, lester ventic at jino baterna ng plm! mga gago yn, 
nakita nyo....umbagan nyo!
Tap to rate this tab
# A B C D E F G H I J K L M N O P Q R S T U V W X Y Z