Song name
# A B C D E F G H I J K L M N O P Q R S T U V W X Y Z

Chicosci - Soopa Fly tab

                      SOOPAFLY BY: CHICOSCI
                      TRANSCRIBED BY: FREON
                VISIT ME AT:freongang_08@yahoo.com
                      freongang_81@yahoo.com

    TNX TO SONNY OF CHICOSCI,,, FOR A LITTLE CONVERSATION AT YOUR GIG AT CONVERSE SALE 
HALL SM MEGAMALL,,, ASTIG KA PARE!!!

dropped D
intro:       X8
|----------------------------|
|----------------------------|
|----------------------------|
|--------------12------------|
|---10h11--11----------------|
|----------------------------|

verse:    AS MANY TIMES
|---------------------------------------------|
|---------------------------------------------|
|---------------------------------------------|
|---------1----------1----------1-----------1-|
|---------1----------1----------1-----------1-|
|-0-0-0-0----0-0-0-0----0-0-0-0----0-0-0-0----|

        as many times
|----------------------------|
|----------------------------|
|----------------------------|
|--------------12------------|
|---10h11--11----------------|
|----------------------------|

|--------------------------------------------------|
|--------------------------------------------------|
|--------------------------------------------------|
|--------------------------------------------------|
|-1-1-1-1-0----1-1-1-1-0---1-1-1-1-0----1-1-1-1-0--|
|-1-1-1-1-0----1-1-1-1-0---1-1-1-1-0----1-1-1-1-0--|

 ooooooooh... ooooooooh... oooooooh... (guitarI)X4
|---------------------------------------|
|---------------------------------------|
|---------------------------------------|
|---------------------------------------|
|-3-----1-----0------0------------------|
|--------------------------3------1-----|

  0000000h... ooooooooh... oooooooh... (guitarII)X4
|-----------------------------------------|
|-----------------------------------------|
|-----------------------------------------|
|-5-----3-----0------0--------------------|
|-3-----1-----0------0-----5-------3------|
|--------------------------3-------1------|

|--------------------------------------------------|
|--------------------------------------------------|
|--------------------------------------------------|
|--------------------------------------------------|
|-1-1-1-1-0----1-1-1-1-0---1-1-1-1-0----1-1-1-1-0--|
|-1-1-1-1-0----1-1-1-1-0---1-1-1-1-0----1-1-1-1-0--|

                AS MANY TIMES
|---------------------------------------------|
|---------------------------------------------|
|---------------------------------------------|
|---------1----------1----------1-----------1-|
|---------1----------1----------1-----------1-|
|-0-0-0-0----0-0-0-0----0-0-0-0----0-0-0-0----|
             <<<>>>
Tap to rate this tab
# A B C D E F G H I J K L M N O P Q R S T U V W X Y Z