Guitaretab - guitar tabs
Song name
# A B C D E F G H I J K L M N O P Q R S T U V W X Y Z

Chicosci - Pink Hearts Yellow Stars Harlequin Lovers tab

Song:    Pink Hearts,Yellow Stars(Harlequin Lover)
Artist:  Chicosci 
Album:   Chicosci
Tabbed by: Paul Anthonie Antoc
E-mail: paul_antoc@yahoo.com
Address: Mariveles,Bataan,Philippines
contact #: 09184423602

Elow po sa mga friends ko sila Calvin,Jon,Otep,Emak,Aerol,Tuts.. at iba 
pa.. sa mga clasm8s ko sa MNHS(annex) IV-A.. mabuhay kayong lahat.. hehe
Binabati ko rin si Maria Lourdes Vejar, HEHE.. wala lang.. HEHEHE!!


Gtr. Legends:
 . - Palm mute 
 / - Slide
 x - Dead Note
 h - Hammer on
 p - Pull off


Tuning: Drop D


Intro part 1: Keyboard

Intro part 2: Also Carries the verse

e|-------------------|
B|-------------------|
G|-2222-2222-2222----|
D|-xxxx-xxxx-xxxx----|
A|-0000-0000-0000----|
D|-------------------|


Pre-Chorus:
e|------------------------------|
B|--------1010x--------1010x----|
G|-888888-------888888----------|
D|------------------------------|
A|------------------------------|
D|------------------------------|
   ......       ......


Chorus: "You we're a harlequin lover.."

e|---------------------|
B|---------------------|
G|--999-121212-55555---| 4x
D|--777-101010-33333---|
A|--777-101010-33333---|
D|--777-101010-33333---|


Repeat Intro part 2
Repeat Verse
Repeat Chorus


Bridge part 1:
e|-------------------------|
B|--------------12---------|
G|-----------------12------|
D|--5~~--5~~---------------|
A|--5~~--5~~---------------|
D|--5~~--5~~---------------|

(Continuation)
e|---------------------------------------|
B|----------8-----------------8----------| Repeat many times..
G|--7h9p7-7---9-7-----7h9p7-7---9-7------| 
D|----------------10----------------10---|
A|---------------------------------------|
D|---------------------------------------|

Guitar 2: w/ low volume
e|--8888-8888-1010--|
B|------------------|
G|------------------| repeat many times
D|------------------|
A|------------------|
D|------------------|
    .... .... . .     


Bridge part 2:

Bass Enters: "Here she comes..."

G|---------------------------|
D|---------------------------| 
A|---------------------------| 
D|--777777-555555-333333333--|
[ Tab from: http://www.guitaretab.com/c/chicosci/88757.html ]
Gtr 1:
e|---------------------------------------|
B|----------8-----------------8----------| Repeat many times..
G|--7h9p7-7---9-7-----7h9p7-7---9-7------| 
D|----------------10----------------10---|
A|---------------------------------------|
D|---------------------------------------|

Gtr 2:
e|----8v--8v-10-8--|
B|--8---8----------|
G|-----------------|Repeat many times
D|-----------------|
A|-----------------|
D|-----------------|



Bridge part 3:(The Loud part of the bridge)

Gtr 1:
e|----------------------------------------|
B|----------8-----------------8-----------| Repeat many times..
G|--7h9p7-7---9-7-----7h9p7-7---9-7-------| 
D|----------------10----------------10----|
A|----------------------------------------|
D|----------------------------------------|

Gtr 2:
e|-------------------|
B|--8888-8888-8-10---| Repeat many times
G|--xxxx-xxxx--------|
D|--5555-5555--------|
A|-------------------|
D|-------------------|

(Continued)
Gtr 2: 
e|--15-13----------13-13h15-15-------------8---10p8-8-----8---10p8-8----|
B|--------17-15----------------17-15-----8---8--------8-8---8--------8--|
G|--------------17-------------------17---------------------------------| 2x
D|----------------------------------------------------------------------|
A|----------------------------------------------------------------------|
D|----------------------------------------------------------------------|


Last Chords:
e|--------|
B|--------| 
G|--9\\---|
D|--x\\---|
A|--7\\---|
D|--------|


End


Pink hearts,Yellow Stars(Harlequin Lovers) Lyrics:

Not casting stones, (Iím casting votes)
What 45 in playing in your head?
(She wouldnít just come clean)
You take a drag, they come to hunt you
Your menthol pixie stick is tired
Youíre out of Vogue

You were a harlequin
Donít you turn it around
You were our harlequin brand
Donít deny what we found

The game is done, over, youíre gone
No oneís laughing, your picture frame is falling
(You hide it in the velvet)
Just so they know
You can tell your lover, your star is out of vogue




Ang mga anumang bayulenteng reaksyon ay maluwag kong tinatanggap,, kaya kung may mali sa
ko,, i-PM nyo nalang o magpost kayo sa comments.. Salamat,,
Related for Pink Hearts Yellow Stars Harlequin Lovers tab