Chief Keef - Love Sosa tab

-------------------------------------------------------------------------------
                             Love Sosa - Chief Keef
-------------------------------------------------------------------------------
Tabbed by: Geoff
E-mail: axhilerate@gmail.com

Tuning:

Lead
e|-----0-2-----0-2-3-0-----3-----3-------------------------------------------|
B|-0-3-----0-3---------3-0---0-3---------------------------------------------|
G|---------------------------------------------------------------------------|
D|---------------------------------------------------------------------------|
A|---------------------------------------------------------------------------|
E|---------------------------------------------------------------------------|

Bass (Timing isn't exact - Listen to song)
G|-----------------------------------------------|
D|--------------5--------------------------------|
A|-2-------------------2-------------------------|
E|-----------------------------------3-----------|
Tap to rate this tab
 
# A B C D E F G H I J K L M N O P Q R S T U V W X Y Z