Song name
# A B C D E F G H I J K L M N O P Q R S T U V W X Y Z

Chief - Mighty Proud tab

-----------------------------------------------------------------------------
                            Chief - Mighty Proud
-----------------------------------------------------------------------------
Tabbed by: Marcus Marchal (Warflojd)
E-mail: mackan_003_94@hotmail.com

Tuning: Standard
No Capo

--------------
h = hammer on
/ = slide up
b = bend
--------------

Intro (same as verse):
Am - C - D (x2)

e|------7------7------12--7--|
B|--10-----10-----10---------|
G|---------------------------|
D|---------------------------|
A|---------------------------|
E|---------------------------|

Verse 1:

Am
I think you're lying to me
C                       D
I think you're lying to me, yeah
Am                           C                            D
I walked into the street and looked at the field with the million sheep

Am
I think you're lying to me
C                       D
I think you're lying to me, yeah
Am                           C                         D
I walked into the street and looked at the lion in the field with the sheep

Am                                        C                      D
Oh, oh, you moved through the field and I know what you're gonna say
Am                           C                  D
Oh, oh, when you don't go, I know just what I'm gonna say to you

Chorus:

D Am          G     Am
I feel mighty proud
D Am          G     Am
I feel mighty proud
D Am          G     Am
I feel mighty proud
D Am          G
I feel mighty prou-ou-oud,
G
Oh, oh, oh,
Am
Hey, hey, hey,
Am
Oh, oh, oh
D
Even when you're not around

Verse 2:

Am                                     C                         D
My soul, you did it before when you're looking right through the door
Am                                  C                     D
The sea's crashing on me and you're looking just like you wanna go to sleep

Am
I know you're lying to me
  C                    D
I know you're lying to me, yeah
Am (strike Am once, then pause)
I walked into the street and saw you there, you did it to me

Chorus:

D Am          G     Am
I feel mighty proud
D Am          G     Am
I feel mighty proud
D Am          G     Am
I feel mighty proud
D Am          G
I feel mighty prou-ou-oud,
G
Oh, oh, oh,
Am
Hey, hey, hey,
Am
Oh, oh, oh
D
Even when you're not around

Solo:

e|---------------------------------------------------------------------------|
B|---------------------------------------------------------------------------|
G|-------------------------------------------------------5-------------------|
D|----------------------------------5-----7--7--7--5--------7--5--7--7-------|
A|-----------------------3--5--5h7-----7--------------7----------------------|
E|--0h3h5--0h3h5h5--3h5------------------------------------------------------|

e|---------------------------------------------------------------------------|
B|---------------------------------------8-----------------------------------|
G|----------------------------------7h9-----7--9--7------7/9-----------5-----|
D|--7--7--5------------------------------------------10-------7--5--7-----7--|
A|-----------7--5/7--5--3----------------------------------------------------|
E|-------------------------5--5--3-------------------------------------------|

e|---------------------------------------------------------------------------|
B|--------------------------------------------------------8-----8--10--------|
G|--------------------5--7b8--8--8--8--5--7b8--7--5--7/9-----9---------9-----|
D|--5-----5-----7--7---------------------------------------------------------|
A|-----7-----7---------------------------------------------------------------|
E|---------------------------------------------------------------------------|

e|---------------------------------12----------------------------------------|
B|--10--12b13--13--13--13--10--13------12b13--10--10------10--10------10-----|
G|----------------------------------------------------12----------12---------|
D|---------------------------------------------------------------------------|
A|---------------------------------------------------------------------------|
E|---------------------------------------------------------------------------|
The solo then continues on, overlapping with the chorus.

Chorus:

D Am          G     Am
I feel mighty proud
D Am          G     Am
I feel mighty proud
D Am          G     Am
I feel mighty proud
D Am          G
I feel mighty prou-ou-oud,
G
Oh, oh, oh,
Am
Hey, hey, hey,
Am
Oh, oh, oh
Tap to rate this tab
 
# A B C D E F G H I J K L M N O P Q R S T U V W X Y Z