Song name
# A B C D E F G H I J K L M N O P Q R S T U V W X Y Z

Childish Gambino - Freaks And Geeks tab

	Freeks And Geeks - Childish Gambino
Tabbed by Andrew DeSantis - atdesantis@ua.edu

Play this riff at the beginning, in-between verses and at the end.

  Cm        Bb                 Abmaj7
---3---6---1---1-----------4---3---3---1---|
---4-------3---3---4---3-------4---4-------|
---5-------3---3---------------5---5-------|
---5-------3---3---------------6---6-------|
---3-------1---1---------------X---X-------|
---X-------X---X---------------X---X-------|

  Cm        Bb               Abmaj7
---3---6---1---1-----------4---3-----------|
---4-------3---3---4---3-------4-----------|
---5-------3---3---------------5-----------|
---5-------3---3---------------6-----------|
---3-------1---1---------------X-----------|
---X-------X---X---------------X-----------|

Play these chords during the verses.

  Cm     Bb     Gm7    Ab
---3------1------3------4---|
---4------3------3------4---|
---5------3------3------5---|
---5------3------3------6---|
---3------1------5------6---|
---X------X------3------4---|
Tap to rate this tab
 
# A B C D E F G H I J K L M N O P Q R S T U V W X Y Z