Song name
# A B C D E F G H I J K L M N O P Q R S T U V W X Y Z

Childish Gambino - Flight Of The Navigator tab

This intro bit repeats for a while until about 0:48

E|--------6----------6---------6--------6-------4------4------4------4----|
B|----------6----------6--------6---------6------4------4------4------4---|
G|------6---------6----------6--------6-------4------4------4------4------|
D|---4----------4----------4--------4--------2------2------2------2-------|
A|------------------------------------------------------------------------|
E|------------------------------------------------------------------------|

and then it moves to this

E|--------9----------9---------9--------9-------5------5------5------5----|
B|----------9----------9--------9---------9------7------7------7------7---|
G|------9---------9----------9--------9-------6------6------6------6------|
D|---7----------7----------7--------7--------4------4------4------4-------|
A|------------------------------------------------------------------------|
E|------------------------------------------------------------------------|

E|--------7----------7---------7--------7-------4------4------4------4----|
B|----------9----------9--------9---------9------5------5------5------5---|
G|------8---------8----------8--------8-------4------4------4------4------|
D|---6----------6----------6--------6-------------------------------------|
A|-------------------------------------------7-----7------7------6--------|
E|------------------------------------------------------------------------|

Eventually around 1:36 when Bino comes in, the guitar part drops an octave. It could be 
an effect change, but it sounds more accurate to drop an octave, so I've tabbed that out here:

E|-------------------------------------------------------------------------|
B|-------------------------------------------------------------------------|
G|------7------7--------7--------7-------2-------2-------2--------2--------|
D|-------6-------6-------6--------6-------4-------4--------4--------4------|
A|----7------7--------7--------7-------4-------4-------4--------4----------|
E|--5------5--------5--------5--------2-------2-------2--------2-----------|

E|-------------------------------------------------------------------------|
B|-------------------------------------------------------------------------|
G|-----4-------4--------4--------4--------1-------1-------1--------1-------|
D|-------6-------6--------6--------6-------2-------2--------2--------2-----|
A|---6-------6--------6--------6--------2-------2-------2--------2---------|
E|--4-------4--------4--------4--------0-------0-------0--------0----------|
Tap to rate this tab
# A B C D E F G H I J K L M N O P Q R S T U V W X Y Z