Song name
# A B C D E F G H I J K L M N O P Q R S T U V W X Y Z

Childish Gambino - Flight Of The Navigator tab

it's my first tab so if it's wrong sorry, but i think sounds about right can be played 
also lower on the neck but just a really nice and chill riff.

Uncanny X-men


Artist: Childish Gambino
Album: Because the Internet
Song: I. Flight of the Navigator

Standard Tuning: EADGBE

Intro:

     Rpt for 2 bars   Rpt for 2 bars
E|-----------------|----------------|
A|-9---------------|-7--------------|
D|---11----11------|---9-----9------|
G|-----------------|----------------|
B|------11---------|------9---------|
E|-----------------|----------------|


Verse/Chorus/Outro
   Rpt throughout the song                                         (optional)
E|-----------------|----------------|---------------|--------------|--------|
A|-12--------------|-9--------------|-11------------|-4------------|-2------|
D|----14----14-----|---11----11-----|----13----13---|---6-----6----|--4---4-|
G|-----------------|----------------|---------------|--------------|--------|
B|-------14--------|------10--------|-------12------|------5-------|----4---|
E|-----------------|----------------|---------------|--------------|--------|
Tap to rate this tab
# A B C D E F G H I J K L M N O P Q R S T U V W X Y Z