Song name
# A B C D E F G H I J K L M N O P Q R S T U V W X Y Z

Children 18 3 - Even Sleeping tab

-------------------------------------------------------------------------------
                         Children 18:3 "Even Sleeping"
-------------------------------------------------------------------------------
Tabbed by:  blinkday41jew
Email:  drewmaroon24@hotmail.com

Tuning:  Standard

    Intro

e|---------------------------------------------------------------------------|
B|---------------------------2-1---2-1---2-1---2/4-2-1-----------------------|
G|-------------------------------3-----3-----3---------3---------------------|
D|----8---4---3---66666666---------------------------------------------------|
A|----8---4---3---66666666---------------------------------------------------|
E|----6---2---1---44444444---------------------------------------------------|
                  ........
Verses

e|----1---------4--------2---------------------------------------------------|
B|----2---------4--------2---------------------------------------------------|
G|----3--(16x)--5--(8x)--3--(8x)---------------------------------------------|
D|----3---------6--------4---------------------------------------------------|
A|----1---------6--------4---------------------------------------------------|
E|--------------4--------2---------------------------------------------------|
      U         U        U
Chorus

e|---------------------------------------------------------------------------|
B|---------------------------------------------------------------------------|
G|---------------------------------------------------------------------------|
D|----8--------4--------3--------6-------------------------------------------|
A|----8--(8x)--4--(8x)--3--(8x)--6--(8x)-------------------------------------|
E|----6--------2--------1--------4-------------------------------------------|


This is simple and I tabbed what i did on my lunch break at work!
Will have whole album more intricately and detailed soon!

Commentsare welcome!

Thanks!



  U  upstrokes
  .  palm mute
| /  slide up
| \  slide down
| h  hammer-on
| p  pull-off
| ~  vibrato
| +  harmonic
| x  Mute note
===============================================================================
Tap to rate this tab
# A B C D E F G H I J K L M N O P Q R S T U V W X Y Z