Song name
# A B C D E F G H I J K L M N O P Q R S T U V W X Y Z

Children 18 3 - Time And Wasted Bullets tab

Okay, so i been figuring out this song for a while. then just the other day i saw these guys at a
concert, so i know i am very very very close/on. except the solo, i have no idea for that really. 
I think its more fun to make up your own solo for it, something similar to his. but if you have 
anything figured out for the solo, send me an email, or comment. or submit a new tab.
im trying to work this into guitar pro also. well, good luck to ya, have fun with it.

E-mail:: Swolleneyeballs@hotmail.com
Tabbed by:: Bryan D:

Guitar:::: David Hostetter

Tuning:: standard| E A D G B e

==Intro::==


Tempo=178

     E E E E E E E E   E E E E E E E E   E E E E E E E E   E E E E E E E E   
e:|------------------|-----------------|-----------------|------------------||
B:|o-----------------|-----------------|-----------------|-----------------o||
G:|--8-8-8-8-8-8-8-8-|-----------------|-----------------|------------------||
D:|--8-8-8-8-8-8-8-8-|-5-5-5-5-5-5-5-5-|-3-3-3-3-3-3-3-3-|-8-8-8-8-8-8-8-8--||
A:|o-6-6-6-6-6-6-6-6-|-5-5-5-5-5-5-5-5-|-3-3-3-3-3-3-3-3-|-8-8-8-8-8-8-8-8-o||
E:|--6-6-6-6-6-6-6-6-|-3-3-3-3-3-3-3-3-|-1-1-1-1-1-1-1-1-|-6-6-6-6-6-6-6-6--||


==Pre-Verse::==


Tempo=112

     Q     Q     E   E   Q
e:|----------------------------||
B:|o--------------------------o||
G:|----------------------------||
D:|----------------------------||
A:|o-5br---5br---5br-5br-5br--o||
E:|----------------------------||


==Verse::==



Tempo=175

     PM===================================================================|
     E E E E E E E E   E E E E E E E E   E E E E E E E E   E E E E E E E E  
e:|------------------|-----------------|-----------------|-----------------|-
B:|o-----------------|-----------------|-----------------|-----------------|-
G:|------------------|-----------------|-----------------|-----------------|-
D:|--7-7-7-7-7-7-7-7-|-1010109-9-9-7-7-|-7-7-7-7-7-7-7-7-|-9-9-9-1010105-5-|-
A:|o-5-5-5-5-5-5-5-5-|-8-8-8-7-7-7-5-5-|-5-5-5-5-5-5-5-5-|-7-7-7-8-8-8-3-3-|-
E:|------------------|-----------------|-----------------|-----------------|-


    PM===================================================================|
    E E E E E E E E   E E E E E E E E   E E E E E E E E   E E E E E E E E  
e:|-----------------|-----------------|-----------------|------------------||
B:|-----------------|-----------------|-----------------|-----------------o||
G:|-----------------|-----------------|-----------------|------------------||
D:|-7-7-7-7-7-7-7-7-|-1010109-9-9-7-7-|-7-7-7-7-7-7-7-7-|-9-9-9-1010107-7--||
A:|-5-5-5-5-5-5-5-5-|-8-8-8-7-7-7-5-5-|-5-5-5-5-5-5-5-5-|-7-7-7-8-8-8-5-5-o||
E:|-----------------|-----------------|-----------------|------------------||


 "Maybe if i tried just a little but harder"

    E E E E E E E E   E E E E E E E E
e:|-----------------|-----------------||
B:|-----------------|-----------------||
G:|-5-5-5-5-5-5-5-5-|-5-5-5-5-5-5-5-5-||
D:|-5-5-5-5-5-5-5-5-|-5-5-5-5-5-5-5-5-||
A:|-3-3-3-3-3-3-3-3-|-3-3-3-3-3-3-3-3-||
E:|-----------------|-----------------||


==Chorus::==


     E E E E E E E E   E E E E E E E E   E E E E E E E E   E E E E E E E E   
e:|------------------|-----------------|-----------------|------------------||
B:|o-----------------|-----------------|-----------------|-----------------o||
G:|--8-8-8-8-8-8-8-8-|-----------------|-----------------|------------------||
D:|--8-8-8-8-8-8-8-8-|-5-5-5-5-5-5-5-5-|-3-3-3-3-3-3-3-3-|-8-8-8-8-8-8-8-8--||
A:|o-6-6-6-6-6-6-6-6-|-5-5-5-5-5-5-5-5-|-3-3-3-3-3-3-3-3-|-8-8-8-8-8-8-8-8-o||
E:|--6-6-6-6-6-6-6-6-|-3-3-3-3-3-3-3-3-|-1-1-1-1-1-1-1-1-|-6-6-6-6-6-6-6-6--||




     H       Q   Q     H       Q   Q     H       Q   Q     H       Q   Q   
e:|------------------|-----------------|-----------------|------------------||
B:|o-----------------|-----------------|-----------------|-----------------o||
G:|--5-------5---5---|-3-------3---3---|-----------------|------------------||
D:|--5-------5---5---|-3-------3---3---|-5-------5---5---|-3-------3---3----||
A:|o-3-------3---3---|-1-------1---1---|-5-------5---5---|-3-------3---3---o||
E:|--3-------3---3---|-1-------1---1---|-3-------3---3---|-1-------1---1----||


==Pre-Verse::==


Tempo=112

    Q     Q     E   E   Q
e:|--------------------------||
B:|--------------------------||
G:|--------------------------||
D:|--------------------------||
A:|-5br---5br---5br-5br-5br--||
E:|--------------------------||


==Verse::==


Tempo=175

     PM===================================================================|
     E E E E E E E E   E E E E E E E E   E E E E E E E E   E E E E E E E E  
e:|------------------|-----------------|-----------------|-----------------|-
B:|o-----------------|-----------------|-----------------|-----------------|-
G:|------------------|-----------------|-----------------|-----------------|-
D:|--7-7-7-7-7-7-7-7-|-1010109-9-9-7-7-|-7-7-7-7-7-7-7-7-|-9-9-9-1010105-5-|-
A:|o-5-5-5-5-5-5-5-5-|-8-8-8-7-7-7-5-5-|-5-5-5-5-5-5-5-5-|-7-7-7-8-8-8-3-3-|-
E:|------------------|-----------------|-----------------|-----------------|-


    PM===================================================================|
    E E E E E E E E   E E E E E E E E   E E E E E E E E   E E E E E E E E  
e:|-----------------|-----------------|-----------------|------------------||
B:|-----------------|-----------------|-----------------|-----------------o||
G:|-----------------|-----------------|-----------------|------------------||
D:|-7-7-7-7-7-7-7-7-|-1010109-9-9-7-7-|-7-7-7-7-7-7-7-7-|-9-9-9-1010107-7--||
A:|-5-5-5-5-5-5-5-5-|-8-8-8-7-7-7-5-5-|-5-5-5-5-5-5-5-5-|-7-7-7-8-8-8-5-5-o||
E:|-----------------|-----------------|-----------------|------------------||


 "Maybe if i tried just a little but harder"

    E E E E E E E E   E E E E E E  Q 
e:|-----------------|-----------------||
B:|-----------------|-----------------||
G:|-5-5-5-5-5-5-5-5-|-5-5-5-5-5-5-----||
D:|-5-5-5-5-5-5-5-5-|-5-5-5-5-5-5-----||
A:|-3-3-3-3-3-3-3-3-|-3-3-3-3-3-3-----||
E:|-----------------|-----------------||


==Chorus::==


     E E E E E E E E   E E E E E E E E   E E E E E E E E   E E E E E E E E   
e:|------------------|-----------------|-----------------|------------------||
B:|o-----------------|-----------------|-----------------|-----------------o||
G:|--8-8-8-8-8-8-8-8-|-----------------|-----------------|------------------||
D:|--8-8-8-8-8-8-8-8-|-5-5-5-5-5-5-5-5-|-3-3-3-3-3-3-3-3-|-8-8-8-8-8-8-8-8--||
A:|o-6-6-6-6-6-6-6-6-|-5-5-5-5-5-5-5-5-|-3-3-3-3-3-3-3-3-|-8-8-8-8-8-8-8-8-o||
E:|--6-6-6-6-6-6-6-6-|-3-3-3-3-3-3-3-3-|-1-1-1-1-1-1-1-1-|-6-6-6-6-6-6-6-6--||




     H       Q   Q     H       Q   Q     H       Q   Q     H       Q   Q    4x
e:|------------------|-----------------|-----------------|------------------||
B:|o-----------------|-----------------|-----------------|-----------------o||
G:|--5-------5---5---|-3-------3---3---|-----------------|------------------||
D:|--5-------5---5---|-3-------3---3---|-5-------5---5---|-3-------3---3----||
A:|o-3-------3---3---|-1-------1---1---|-5-------5---5---|-3-------3---3---o||
E:|--3-------3---3---|-1-------1---1---|-3-------3---3---|-1-------1---1----||


==Solo::==

Need help figuring it out please!

i know somewhere in the solo he does something like this...

    PM=========|
e:|------------------------------------------|
B:|------------------------------------------|
G:|-------------then some stuff here i think-|
D:|-------15-17------------------------------|
A:|-15-17------------------------------------|
E:|------------------------------------------|

somthing like that. you might figure it out... he turns away from the croud 
when he plays the solo though, so that makes it more hard.

Guitar under solo::

     E E E E E E E E   E E E E E E E E   E E E E E E E E   E E E E E E E E  4x
e:|------------------|-----------------|-----------------|------------------||
B:|o-----------------|-----------------|-----------------|-----------------o||
G:|--8-8-8-8-8-8-8-8-|-----------------|-----------------|------------------||
D:|--8-8-8-8-8-8-8-8-|-5-5-5-5-5-5-5-5-|-3-3-3-3-3-3-3-3-|-8-8-8-8-8-8-8-8--||
A:|o-6-6-6-6-6-6-6-6-|-5-5-5-5-5-5-5-5-|-3-3-3-3-3-3-3-3-|-8-8-8-8-8-8-8-8-o||
E:|--6-6-6-6-6-6-6-6-|-3-3-3-3-3-3-3-3-|-1-1-1-1-1-1-1-1-|-6-6-6-6-6-6-6-6--||


==Chorus::==

    W                  H.     Q         E E E E E E E E   E E E E E E E E
e:|-----------------|-----------------|-----------------|-----------------||
B:|-----------------|-----------------|-----------------|-----------------||
G:|-----------------|-----------------|-----------------|-----------------||
D:|-----------------|-----------------|-3-3-3-3-3-3-3-3-|-8-8-8-8-8-8-8-8-||
A:|-----------------|---------S\\\\//-|-3-3-3-3-3-3-3-3-|-8-8-8-8-8-8-8-8-||
E:|-----------------|---------S\\\\//-|-1-1-1-1-1-1-1-1-|-6-6-6-6-6-6-6-6-||


     E E E E E E E E   E E E E E E E E   E E E E E E E E   E E E E E E E E  3x
e:|------------------|-----------------|-----------------|------------------||
B:|o-----------------|-----------------|-----------------|-----------------o||
G:|--8-8-8-8-8-8-8-8-|-----------------|-----------------|------------------||
D:|--8-8-8-8-8-8-8-8-|-5-5-5-5-5-5-5-5-|-3-3-3-3-3-3-3-3-|-8-8-8-8-8-8-8-8--||
A:|o-6-6-6-6-6-6-6-6-|-5-5-5-5-5-5-5-5-|-3-3-3-3-3-3-3-3-|-8-8-8-8-8-8-8-8-o||
E:|--6-6-6-6-6-6-6-6-|-3-3-3-3-3-3-3-3-|-1-1-1-1-1-1-1-1-|-6-6-6-6-6-6-6-6--||


==Outro::==

     H       Q   Q     H       Q   Q     H       Q   Q     H       Q   Q    4x
e:|------------------|-----------------|-----------------|------------------||
B:|o-----------------|-----------------|-----------------|-----------------o||
G:|--5-------5---5---|-3-------3---3---|-----------------|------------------||
D:|--5-------5---5---|-3-------3---3---|-5-------5---5---|-3-------3---3----||
A:|o-3-------3---3---|-1-------1---1---|-5-------5---5---|-3-------3---3---o||
E:|--3-------3---3---|-1-------1---1---|-3-------3---3---|-1-------1---1----||

not sure about this last ending part, but i think its...


    Q   Q   H           W
e:|------------------|------------------||
B:|------------------|------------------||
G:|------------------|------------------||
D:|-3---5---8--------|-(8)--------------||
A:|-3---5---8--------|-(8)--------------||
E:|-1---3---6--------|-(6)--------------||


End.


|==============================================================================|

Tab Legend
-----------------
 h   - hammer-on
 p   - pull-off
 b   - bend
 pb  - pre-bend
 r   - bend release (if no number after the r, then release immediately)
 /\  - slide into or out of (from/to "nowhere")
 s   - legato slide
 S   - shift slide
  - natural harmonic
[n]  - artificial harmonic
n(n) - tapped harmonic
 ~   - vibrato
 tr  - trill
 T   - tap
 TP  - trem. picking
 PM  - palm muting
\n/  - tremolo bar dip; n = amount to dip
 \n  - tremolo bar down
 n/  - tremolo bar up
/n\  - tremolo bar inverted dip
 =   - hold bend; also acts as connecting device for hammers/pulls
 <>  - volume swell (louder/softer)
 x   - on rhythm slash represents muted slash
 o   - on rhythm slash represents single note slash

Misc Legend
-----------
 |  - bar
||  - double bar
||o - repeat start
o|| - repeat end
*|  - double bar (ending)
 :  - bar (freetime)
 $  - Segno
 &  - Coda
Tempo markers -  = BPM(8/16=s8/s16), where s8 = swing 8ths, s16 = swing 16ths

E - eigth note
Q - quarter note
H - half note
W - whole note

Tap to rate this tab
# A B C D E F G H I J K L M N O P Q R S T U V W X Y Z