Song name
# A B C D E F G H I J K L M N O P Q R S T U V W X Y Z

Children 18 3 - Samantha tab

(My goal is to learn as many songs of theirs as i can.) 

Okay, i am 99% sure on the picking, and 98% sure on the chords. 
If you listen to the song, you can here he has an overdubbed guitar in there too.
Leave a comment or email me with any corrections.

Tabbed/Transcribed by:: Bryan D. (swolleneyeballs)
Email:: swolleneyeballs@hotmail.com


----------------------------------------------------------------------------
----------------------------------------------------------------------------
-------------------------- Samantha - Children 18:3 ------------------------
----------------------------------------------------------------------------
----------------------------------------------------------------------------

Guitar:: David Hostetter

Played on a Cean channel.

4/4 time

    E E E E E E E E | E E E E E E E E | E E E E E E E E | Q   Q   Q   Q
e:|-----------------|-----------------|-----------------|-----------------|-
B:|-----6-------4---|-----2-----------|-----6-------4---|-----------------|-
G:|-----7-------5---|-----3-----6---5-|-----7-------5---|-6---5---6---5---|-
D:|---7-------5-----|---3-------6---5-|---7-------5-----|-6---5---6---5---|-
A:|-5-----5-3-----3-|-1-----1-4---3---|-5-----5-3-----3-|-4---3---4---3---|-
E:|-----------------|-----------------|-----------------|-----------------|-

    Q   Q   Q   Q
e:|-----------------||
B:|-----------------||
G:|-3---3---3---3---||
D:|-3---3---3---3---||
A:|-1---1---1---1---||
E:|-1---1---1---1---||


    E E E E E E E E | E E E E E E E E | E E E E E E E E | Q   Q   Q   Q
e:|-----------------|-----------------|-----------------|-----------------|-
B:|-----6-------4---|-----2-----------|-----6-------4---|-2---1---2---1---|-
G:|-----7-------5---|-----3-----6---5-|-----7-------5---|-3---2---3---2---|-
D:|---7-------5-----|---3-------6---5-|---7-------5-----|-3---2---3---2---|-
A:|-5-----5-3-----3-|-1-----1-4---3---|-5-----5-3-----3-|-----------------|-
E:|-----------------|-----------------|-----------------|-----------------|-


    Q   Q   Q   Q   | Q   Q   Q   Q   | Q   Q   Q   Q
e:|-----------------|-----------------|-----------------||
B:|-----------------|-----------------|-----------------||
G:|-3---3---3---3---|-6---5---6---5---|-3---3---3---3---||
D:|-3---3---3---3---|-6---5---6---5---|-3---3---3---3---||
A:|-1---1---1---1---|-4---3---4---3---|-1---1---1---1---||
E:|-1---1---1---1---|-----------------|-1---1---1---1---||


    E E E E E E E E | E E E E E E E E | E E E E E E E E | Q   Q   Q   Q
e:|-----------------|-----------------|-----------------|-----------------|-
B:|-----6-------4---|-----2-----------|-----6-------4---|-----------------|-
G:|-----7-------5---|-----3-----6---5-|-----7-------5---|-6---5---6---5---|-
D:|---7-------5-----|---3-------6---5-|---7-------5-----|-6---5---6---5---|-
A:|-5-----5-3-----3-|-1-----1-4---3---|-5-----5-3-----3-|-4---3---4---3---|-
E:|-----------------|-----------------|-----------------|-----------------|-

    Q   Q   Q   Q
e:|-----------------||
B:|-----------------||
G:|-3---3---3---3---||
D:|-3---3---3---3---||
A:|-1---1---1---1---||
E:|-1---1---1---1---||

End, have fun!
----------------------------------------------------------------------------
----------------------------------------------------------------------------

Tab Legend::

E  = Eigth Note
Q  = Quarter Note
|| = end of section
|- = section continued
 | = End of measure

Tap to rate this tab
# A B C D E F G H I J K L M N O P Q R S T U V W X Y Z