Song name
# A B C D E F G H I J K L M N O P Q R S T U V W X Y Z

Children 18 3 - Homemade Valentine tab

Intro                                      Note X=palm mute
e--------------------------------------------------------------------|
B--------------------------------------------------------------------|
G---------------44XXXX-----------------------------88888888----------| x2
D-66XXXX-22XXXX-44XXXX-44XXXX-66XXXX-44XXXX-22XXXX-88888888----------|
A-66XXXX-22XXXX-22XXXX-44XXXX-66XXXX-44XXXX-22XXXX-66666666----------|
E-44XXXX-00XXXX--------22XXXX-44XXXX-22XXXX-00XXXX-------------------|

Verse1
e--------------------------------------------------------------------|
B--------------------------------------------------------------------|
G-------44-66-------44----------44-66-------44-66--------------------|
D-66-22-44-66-66-22-44-44-66-22-44-66-66-22-44-66--------------------|
A-66-22-22-44-66-22-22-44-66-22-22-44-66-22-22-44--------------------|
E-44-00-------44-00----22-44-00-------44-00--------------------------|

Bridge
e--------------------------------------------------------------------|
B--------------------------------------------------------------------|
G--------------------7777777-9999999999------------------------------|
D-4444444444444444-0-7777777-9999999999------------------------------|
A-4444444444444444-0-5555555-7777777777------------------------------|
E-2222222222222222-0-------------------------------------------------|

Chorus same as Intro
Verse2 same as Verse1
Bridge
Chorus
Bridge2 is alot different but has the same chords as the verse. then after that they 
sing the chorus with these little tiny voices where you don't play. then you do the chorus 
a while then if you want to do the solo here it is.
Solo
e------------------------|
B--------4---------------|
G--4-6bend--646--434-----|
D------------------------|
A------------------------|
E------------------------|

well that's it. pretty easy song. have fun!!!!!!!!!!!
Tap to rate this tab
# A B C D E F G H I J K L M N O P Q R S T U V W X Y Z