Song name
# A B C D E F G H I J K L M N O P Q R S T U V W X Y Z

Children 18 3 - Who They Are tab

Ok so i noticed there is like no tabs at all for Children 18:3 for some reason so i 
to put one up, i saw them in concert and now i like know how to play all their songs.
          Intro and Verse
E-------------------------------|
B-------------------------------|
G-------------------------------|
D--7-7--5--5--5--3--3--5-5------| Repeats until Chorus
A--7-7--5--5--5--3--3--5-5------|
E--5-5--3--3--3--1--1--3-3------|


E-------------------------------|
B-------------------------------|
G--5----------------------------| Repeats a Few Times and goes back to the
D--5-X4-5-----3-----5-----------| Verse
A--3----5-X4--3-X8--5-----------|
E-------3-----1-----3-----------|


This is my first tab so i hope it helped im just beginning to tab songs, questions or 
can be sent to marshallamp13@aol.com
Tap to rate this tab
 
# A B C D E F G H I J K L M N O P Q R S T U V W X Y Z