Song name
# A B C D E F G H I J K L M N O P Q R S T U V W X Y Z

Children 18 3 - Samantha chords

Highlighted       Show chord diagrams
----------------------------------------------------------------------------
			     Samantha - Children 18:3
----------------------------------------------------------------------------
Tabbed by: ratracekid111
Email: ratracekid111@yahoo.com

Tuning: standard


Pretty simple, Ill just give you the chords

Verse:
  
 (Dm)   (Bb)    (F)   (Bb) (A)     (Db) (C) (Db)(C) (F) 
   
e|-5------1------1------1----------------------------1---------------------|
B|-6------3------1------3----------------------------1---------------------|
G|-7------3------2------3---2--------6---5---6---5---2---------------------|
D|-7------3------3------3---2--x2----6---5---6---5---3---------------------|
A|-5------1------3------1---0--------4---3---4---3---3---------------------|
E|---------------1-----------------------------------1---------------------|
   


That's really it. The pattern is pretty simple

Lyrics:

Samantha put down the gun 
The silence here is suffocating 
Samantha put down the gun 
We're overrun, we're overrun 

Samantha put down the gun 
Our friends will not be lost forever 
Samantha put down the gun 
We're overrun, we're overrun 

Samantha put down the gun 
The last of us will soon be leaving 
Samantha put down the gun 
We're overrun, we're overrun 



| /  slide up
| \  slide down
| h  hammer-on
| p  pull-off
| ~  vibrato
| +  harmonic
| x  Mute note
===============================================================================
Tap to rate this tab
 
# A B C D E F G H I J K L M N O P Q R S T U V W X Y Z