Song name
# A B C D E F G H I J K L M N O P Q R S T U V W X Y Z

Children 18 3 - Oh Bravo tab

Artist: Children 18:3
Song: Oh, Bravo
Album: Rain's 'A Comin'
Tuning:E Standard 
Tabber: Adam Shepherd

First tab, but I think it's pretty close. 

|------------------------------------------|
|------------------------------------------|
|----------7h9p7h9---9bxx9b-9brp7---7------|
|-7h9-9-9-------------------------9----9---|
|------------------------------------------|
|------------------------------------------|

|------------------------------------------|
|------------------------------------------|
|------4-----------------------------------|
|--4h7---7--4h7p4--2---2-------------------|
|--------------------5---------------------|
|------------------------------------------|

|------------------------------------------|
|------------------------------------------|
|-------------4-7-4---4-7b-----------------|
|-2-2-4-7-4-7-------7----------------------|
|--5---------------------------------------|
|------------------------------------------|

|------------------------------------------|
|-T12p10p7---------------------10b---------|
|-------------(Several times)--------------|
|------------------------------------------|
|------------------------------------------|
|------------------------------------------|

|------------------17b---------------------|
|-17b--17brp15-----------------------------|
|--------------16--------------------------|
|------------------------------------------|
|------------------------------------------|
|------------------------------------------|

Bravo, you just played the solo. 
Tap to rate this tab
# A B C D E F G H I J K L M N O P Q R S T U V W X Y Z