Song name
# A B C D E F G H I J K L M N O P Q R S T U V W X Y Z

Children Collide - Brave Robot tab

http://www.childrencollide.com/

first tab for me. great song. first children collide tab. from the glass mountain liar's ep.
my brother figured out the majority of the tab, so credit to him.

intro


-----------------------|
-----------------------|
-----------------------|
-----------------------|
9-7-5-4-2-4-5-7-9-10-9-|
-----------------------|

---------------------|
---------------------|
---------------------|
----------4-5-7-9----|
9-7-5-4-7------------|
---------------------|
verse 1:

----------------------|
7--------5---------3--|
7--------6---------4--|
9--------7---------5--|
9--------7---------5--|
7--------5---------3--|
brave robot into space...ect
chorus:
drilling down deep inside....
--------------|
3-----------0-|
4-----------0-|
5-----------2-|
5-----------2-|
3-------------|
...apparently there is....life on mars....
------------------------------------|
------------------------------------|
------------------------------------|
------------------------------------|
2-4-5-7-9-7-12-10-9-7-9-7-5-4-5-4---|
------------------------------------| x1

you get the idea..pick however you want.

he plays it on a higher octave live...that sounds more like the studio recording.

thing after chorus...

--------------------------|
--------------------------|
----7-------6--------4----|
----9-------7--------5----|
9-9-----7-7------5-5------|
--------------------------|

you get the idea

repeat chords from first verse, same chorus, except the solo thingy is played 4 times.

breakdown:

live he plays

--------------------|
--------------------|
--------------------|
--------------------|
2-2-2---------14-12-|
--------------------|

an alternative is

------------------------|
------------------------|
------------------------|
---------9-7------------|
------------------------|
--7-7-7-----------------|

and back to chorus.

sorry for the mess, phwease rate.


Tap to rate this tab
# A B C D E F G H I J K L M N O P Q R S T U V W X Y Z