Song name
# A B C D E F G H I J K L M N O P Q R S T U V W X Y Z

Children Collide - We Are Amphibious tab

Artist: Children Collide
Album: Glass Mountain Liars (EP)
Song: We Are Amphibious
Part: Main Riff and continued part.


Guitar 1
|-----------------------------------------------------------------|
|-----------------------------------------------------------------|
|-----------------------------------------------------------------|
|------4443---------4443-------4443--------4446-------------------|
|-----------------------------------------------------------------|
|---4------------4----------4-----------4-------------------------|
|Guitar 2                                                         |
|-----------------------------------------------------------------|
|-----------------------------------------------------------------|
|-----------------------------------------------------------------|
|---6-------------6----------6----------6-------------------------|
|---6-------------6----------6----------6-------------------------|
|---4-------------4----------4----------4-------------------------|



Guitar 1
|-----------------------------------------------------------------|
|-----------------------------------------------------------------|
|-----------------------------------------------------------------|
|------4443---------4443-------4443--------4446-------------------|
|-----------------------------------------------------------------|
|---4------------4----------4-----------4-------------------------|
|Guitar 2                                                         |
|-----------------------------------------------------------------|
|-----------------------------------------------------------------|
|-----------------------------------------------------------------|
|---6666666666666666666666666666666666666-------------------------|
|---6666666666666666666666666666666666666-------------------------|
|---4444444444444444444444444444444444444-------------------------|

We are, we are amphibious....

Guitar 1
|-----------------------------------------------------------------|
|-----------------------------------------------------------------|
|-----------------------------------------------------------------|
|-----------------------------------------------------6-----------|
|-----------------------------------------------------6-----------|
|----444444444444444444444444444444444444444444444444-4-----------|
|Guitar 2                                                         |
|-----------------------------------------------------------------|
|-----------------------------------------------------------------|
|-----------------------------------------------------------------|
|-----------------------------------------------------------------|
|---4444444444444444222222222222222200000000000000000-------------|
|-----------------------------------------------------------------|
Tap to rate this tab
 
# A B C D E F G H I J K L M N O P Q R S T U V W X Y Z