Song name
# A B C D E F G H I J K L M N O P Q R S T U V W X Y Z

Children Collide - Stranger Love tab

From The EP Glass Mountain Liars

Listen For The Timing
0:05
   G        G/G# G          G/G#                                   G
|--------------------------------------------------------------------|
|--------------------------------------------------------------------|
|--------------------------------------------------------------------|
|--5-5-5-5-5-6-6-5-5-5-5-5-5-6-6--6-6-x-6--6-6-x-6--6-6-x-6-6-6-x--5-|
|--5-5-5-5-5-5-5-5-5-5-5-5-5-5-5--5-6-x-5--5-5-x-5--5-5-x-5-5-5-x--5-|
|--3-3-3-3-3-3-3-3-3-3-3-3-3-3-3--3-3-x-3--3-3-x-3--3-3-x-3-3-3-x--3-|

I Wake Up When She....
|--------------------------------------------------------------------|
|--------------------------------------------------------------------|
|--------------------------------------------------------------------|
|--5-5-5-5-5-6-6-5-5-5-5-5-5-6-6--6-6-x-6--6-6-x-6--6-6-x-6-6-6-x--5-|
|--5-5-5-5-5-5-5-5-5-5-5-5-5-5-5--5-6-x-5--5-5-x-5--5-5-x-5-5-5-x--5-|
|--3-3-3-3-3-3-3-3-3-3-3-3-3-3-3--3-3-x-3--3-3-x-3--3-3-x-3-3-3-x--3-|

She Wakes Up When I....
|--------------------------------------------------------------------|
|--------------------------------------------------------------------|
|--------------------------------------------------------------------|
|--5-5-5-5-5-6-6-5-5-5-5-5-5-6-6--6-6-x-6--6-6-x-6--6-6-x-6-6-6-x--5-|
|--5-5-5-5-5-5-5-5-5-5-5-5-5-5-5--5-6-x-5--5-5-x-5--5-5-x-5-5-5-x--5-|
|--3-3-3-3-3-3-3-3-3-3-3-3-3-3-3--3-3-x-3--3-3-x-3--3-3-x-3-3-3-x--3-|

 Guitar1 Stranger..... Stranger Love...
|--------------------------------------------------------------------|
|--------------------------------------------------------------------|
|--------------------------------------------------------------------|
|--5--------5----2---------------------------------------------------|
|--5--------5----2---------------------------------------------------|
|--3--------3----0---------------------------------------------------|
|Guitar 2                                                            |
|--------------------------------------------------------------------|
|----------------------------------3--5--7-8-11----------------------|
|----------------------------------x--x--x-x-x-----------------------|
|----------------------------------0--2--4-5-7-----------------------|
|--------------------------------------------------------------------|
|--------------------------------------------------------------------|


 Guitar1 Stranger..... Stranger Love...
|--------------------------------------------------------------------|
|--------------------------------------------------------------------|
|--------------------------------------------------------------------|
|--5--------5----2---------------------------------------------------|
|--5--------5----2---------------------------------------------------|
|--3--------3----0---------------------------------------------------|
|Guitar 2                                                            |
|--------------------------------------------------------------------|
|-------------------------------------11-8--7-5----------------------|
|-------------------------------------x--x--x-x----------------------|
|-------------------------------------7--5--4-2----------------------|
|--------------------------------------------------------------------|
|--------------------------------------------------------------------|

The bass riff is
|--------------------------------------------------------------------|
|--------------------------------------------------------------------|
|--------------------------------------------------------------------|
|--10--------8---7--------------3-------------7----------------------|





Tap to rate this tab
# A B C D E F G H I J K L M N O P Q R S T U V W X Y Z