Song name
# A B C D E F G H I J K L M N O P Q R S T U V W X Y Z

Children Collide - In The Clouds tab

In The Clouds
by Children Collide
From The 'We Three Brave and True' EP

|---------------------------------|
|---------------------------------|
|-4-4-4-4-4-4-4-4-----------------| this riff is played
|-4-4-4-4-4-4-4-4-5-5-5-5-5-5-5-5-| throughout the whole
|-2-2-2-2-2-2-2-2-5-5-5-5-5-5-5-5-| song.
|-----------------3-3-3-3-3-3-3-3-|

Intro Riff

|--------------------------------------------------------------------------------------|
|--------------------------------------------------------------------------------------|
|--------------------------------------------------------------------------------------|
|--------------------------------------------------------------------------------------|
|-2-2-4-4-5-5-5-7-9-9-9-9-9-9-9-9-12-12-12-10-10-9-9-10-10-12-12-12-12-12-12-12--------|
|--------------------------------------------------------------------------------------|

|--------------------------------------------------------------------------------------|
|--------------------------------------------------------------------------------------|
|--------------------------------------------------------------------------------------|
|--------------------------------------------------------------------------------------|
|--9-9-9-9-10-10-9-7-7-9-9-9-9-9-9-14-14-14-12-12-10-9-10-10-10-10-10-10-10------------|
|--------------------------------------------------------------------------------------|


LEAD BREAK

|--------------------------------------------------------------------------------------|
|--------------------------------------------------------------------------------------|
|--------------------------------------------------------------------------------------|
|------4-4-4-2-2-2-----4-4-4-2-2-2--------------------------------------4-4-4-2-4/7-4--|
|--2-2-------------2-2-----------------5-5-5-4-4-4-----5-5-5-4-4-4--2-2----------------|
|----------------------------------3-3-------------3-3---------------------------------|


|---------------------------------|
|---------------------------------|
|---------------------------------|
|---------------------------------|
|-----5-5-5-4-4-2-2-4-4-5---------|
|-3-3-----------------------------|



Lead Break 2
|--------------------------------------------------------------------------------------|
|--------------------------------------------------------------------------------------|
|--------------------------------------------------------------------------------------|
|--4h2-4h2-4h2-4h2-4h2-4h2-4h2-4h2----9-----11-----12---11---9---7-5-4-2--4-2-0--------|
|-------------------------------------------------------------------------------4-2----|
|--------------------------------------------------------------------------------------|
Tap to rate this tab
 
# A B C D E F G H I J K L M N O P Q R S T U V W X Y Z