Song name
# A B C D E F G H I J K L M N O P Q R S T U V W X Y Z

Children Collide - Jellylegs tab

JELLYLEGS by CHILDREN COLLIDE from the album THEORY OF EVERYTHING [2010]
All these chords aren't major or minor, just 133 pattern; Root, 5th, Octave.
INTRO:

chords: D           Bb              G
      e|--------------------------------------------------------|
      B|--------------------------------------------------------|
      G|--------------------------------------------------------|
      D|--------------------------------------------------------|
      A|-5-5-5-8-7-5-----------8--8----------------3--3-3--1-0--|
      E|-------------6--6-6-6---------3--3--3-3-3---------------|

e|-----------------------------------------------|
B|-----------------------------------------------|
G|-----------------------------------------------|
D|--------5-7-8----------------------------------|
A|--5-5-5-8-7-5------------8--8------------------|
E|---------------6--6-6-6--------3-5-6-8-6-5-3-5-|


VERSE 1:
D          Bb                G
She leaves me with Jelly legs
D          Bb                    G
Where did all my good luck get to
D          Bb                G                  C
We're curled up like sleeping kittens on the floor
D          Bb                    G
Stowed aboard your big green boat

LEAD BREAK/RIFF:
w/ a small amount of delay.
e|-----------------------------------------------|
B|-----------------------------------------------|
G|-----------------------------------------------|
D|--------5-7-8----------------------------------|
A|--5-5-5-8-7-5------------8--8------------------|
E|---------------6--6-6-6--------3-5-6-8-6-5-3-5-|

VERSE 2:
D          Bb                G
She took aim with a turned back
D          Bb                G
Blew all in me with gold silence
D          Bb                G                C
Then a science project volcano erupts inside me
D          Bb                G
Filling me with flat champagne

CHORUS:
Bb            G                  D
Stretched out like a rubber band
Bb             G           D
From one planet to the next
Bb             G           D                   C
You went hunting with your grandfather on that lonely night
Bb             G            D
I guess ill meet you in the afterlife

VERSE 3: (LEAD BREAK/RIFF is played in the background of this verse)
D           Bb              G
She leaves me with jellylegs
D              Bb              G
Where did all my good luck get to
D        Bb              G               C
Like a lonely kitten, sinking, drowning in the harbor
D                  Bb                G
I walked the plank, your big green boat

CHORUS:
Bb            G                  D
Stretched out like a rubber band
Bb             G           D
From one planet to the next
Bb             G                       D                   C
You went hunting with your grandfather on that lonely night
Bb             G            D
I guess ill meet you in the afterlife

GUITAR SOLO:
w/ Distortion & Tremelo Picking.
e|------------------------------------------------------------------------|
B|------------------------------------------------------------------------|
G|------------------------------------------------------------------------|
D|------------------------------------------------------------------------|
A|---3--5--7--8--10--12--13--15--13--12--10-8-7--5--3--5--7--8--7--5------|
E|------------------------------------------------------------------------|

e|--------------------------------------------------------|
B|--------------------------------------------------------|
G|---5~/---7~/---10-9-7-5-3-5-7-5-3-2-0-------------------|
D|--------------------------------------------------------|
A|--------------------------------------------------------|
E|----------------------------------------3-5-6-8-6-5-3-5-|


CHORUS: 

Bb            G                  D
Stretched out like a rubber band
Bb             G           D
From one planet to the next
Bb             G                       D                   C
You went hunting with your grandfather on that lonely night
Bb             G            D
I guess ill meet you in the afterlife

TAG:
Bb             G            D
I guess ill meet you in the afterlife
Bb             G            D
I guess ill meet you in the afterlife
Bb             G            D
I guess ill meet you in the afterlife
Bb             G            D
I guess ill meet you in the afterlife
Bb             G            D
I guess ill meet you in the afterlife
Bb             G            D
I guess ill meet you in the afterlife

Finish on D


Enjoy :D
Tap to rate this tab
 
# A B C D E F G H I J K L M N O P Q R S T U V W X Y Z