Children Collide - Future Monks tab

FUTURE MONKS by
CHILDREN COLLIDE
from the 2nd LP
THEORY OF EVERYTHING

VERSE RIFF:
e|-----------------------------------------------------------------------|
B|-----------------------------------------------------------------------|
G|-----------------------------------------------------------------------|
D|--11--11-11--11--11--11---9--9--9----11--11-11--11--11--11---9--9--9---|
A|--9---9--9---9---9---9----7--7--7----9---9--9---9---9---9----7--7--7---|
E|-----------------------------------------------------------------------|

VERSE TO CHORUS JOINING RIFF:
e|--------------------------------------------|
B|--------------------------------------------|
G|------------------------6--6\4/9--9-6-4-4---| x2
D|--4--4--4/7--7/9--9--9----------------------|
A|--------------------------------------------|
E|--------------------------------------------|

CHORUS RIFF:
e|-----------------|
B|-----------------|
G|-----------------| x16
D|----2------------|
A|--4---4-2-1-2-4--|
E|-----------------|

then VERSE RIFF

then CHORUS RIFF x24


this is a pretty simple song for lead guitar, as all the chord changes are happening in 
bass. rate & comment please :)
Tap to rate this tab
 
# A B C D E F G H I J K L M N O P Q R S T U V W X Y Z