Children Collide - Skeleton Dance tab

Intro:
  B5-D5
E------------------|
B------------------|
G------77~7--------|
D-99~9-77~7--------|
A-99~9-55~5--------|
E-77~7-------------|

E5~

riff:

E--------------------------|
B--------------------------|
G--------------------------|
D--------------------------|
A--5-4-2-0-2-4-5-7-9-10-7~-|
E--------------------------|


E--------------------------|
B--------------------------|
G--------------------------|
D--------------------------|
A--5-4-2-0-2-4-5-7-9-10-12-|
E--------------------------|


Chorus:
   E5~~~~A5-B5-E5~~~~

im too lazy to elaborate..
just use your ears.. its enough

jes_man12@yahoo.com
Tap to rate this tab
 
# A B C D E F G H I J K L M N O P Q R S T U V W X Y Z