Children Collide - Skeleton Dance tab

Skeleton Dance-Children Collide
Intro and Main Riff			last part of before chorus
--------------------------------|-----------------------------------------|
--------------------------------|-----------------------------------------|
-4--4-4-7-7--7--4-4--4--7-7-----|-----9~------999-999--999----------------|
-4--4-4-7-7--7--4-4--4--7-7-----|-----9~------999-999--999----------------|
-2--2-2-5-5--5--2-2--2--5-5-----|-----7~------777-777--777----------------|
--------------------------------|-----------------------------------------|

-------------------------------------------------------------------------|
-------------------------------------------------------------------------|
-------------------------------------------------------------------------|
-------------------------------------------------------------------------|
--555-444-222-000-222-444-555-777-999-10-10-10-999--77~------------------|
-------------------------------------------------------------------------|

-------------------------------------------------------------------------|
-------------------------------------------------------------------------|
-------------------------------------------------------------------------|
-------------------------------------------------------------------------|
--555-444-222-000-222-444-555-777-999-10-10-10-12-12-12/-----------------|
-------------------------------------------------------------------------|

Chorus
We are just another
	part of the ocean~~
-------------------------------------------------------------------------|
-------------------------------------------------------------------------|
-9999-9999--9999--9999---------------------------------------------------|
-9999-9999--9999--9999----77-99~---77-99~--------------------------------|
-7777-7777--7777--7777----77-99~---77-99~--------------------------------|
--------------------------55-77----55-77~--------------------------------|

-------------------------------------------------------------------------|
--------------------------------------22-44-66-77-66-44-66-77-99-1010-12-|
-------------------------------------------------------------------------|
---------------------------555555-77-------------------------------------|
-0-2-4-5-4-2-444-5555-777------------------------------------------------|
-------------------------------------------------------------------------|


-------------------------------------------------------|
--10-8-7-8~~-7-5-3-2~~--77-55-33-22----------22-33-55--|
-------------------------------------44-22-44----------|
-------------------------------------------------------|
-------------------------------------------------------|
-------------------------------------------------------|

Suggestions:jes_man12@yahoo.com
Tap to rate this tab
 
# A B C D E F G H I J K L M N O P Q R S T U V W X Y Z