Song name
# A B C D E F G H I J K L M N O P Q R S T U V W X Y Z

Children Collide - Arrows tab

Ok the other tab on here sucks so thought i would tab it properly.

Standard tuning

Verse Chords
-------------|
-------------|
-8-9---------|
-9-9---------|
-9-7---------|
-7-----------|

Chorus

-------------:-----------------|
-------------:-----------------|
---------8-6-:----------6-11---|
-9-----------:-9---------------|
-9-------6-4-:-9--------4-9----|
-7-----------:-7---------------|

Interlude
----------------:---------------|
----------------:---------------|
-9---8----13----:-9--8---13--16-|
----------------:---------------|
-7---6----11----:-7--6---11--14-|
----------------:---------------|

Lead Bit
-11/12-11/12-12p11-12p11-|
-------------------------|
-------------------------|
-------------------------|
-------------------------|
-------------------------|

Thanks, Please rate.
Tap to rate this tab
# A B C D E F G H I J K L M N O P Q R S T U V W X Y Z