Song name
# A B C D E F G H I J K L M N O P Q R S T U V W X Y Z

Children Collide - My Heart Came Alive tab

This is the intro tab of My Heart Came Alive by Children Collide on the album Monument 
by Lewis Hall.

----------------------------------------------------------

Intro (Starts at 0:24)

|------------------------------------------------------------------------|
|------------------------------------------------------------------------|
|------------------------------------------------------------------------|
|----------------------------------------------3-2-0-2--------5-5-7-5-7--|
|----------------------3-3-3---------------5-5---------3-3-5-------------|
|--5-5-5/3-5-5-5--5-5-------5--3-5-5--5-5--------------------------------|

|-------------------------------------------------------------------------|
|-------------------------------------------------------------------------|
|----------------10-9-7-9----------12-12-14-12-14--12-10--9--9-9-10-12-14-|
|--5--5-7--12-12----------10-10-12----------------------------------------|
|-------------------------------------------------------------------------|
|-------------------------------------------------------------------------|

|-----------------------------------|
|-----------------------------------|
|--12-10-9-10-----------------------|
|--------------10--10--10-10-14-12--|
|-----------------------------------|
|-----------------------------------|

Some parts are played in the chorus and the solos later on in the song are in the same 
key, so just mess around with the intro and you will most likely end up with the solo aswell.
Tap to rate this tab
# A B C D E F G H I J K L M N O P Q R S T U V W X Y Z