Song name
# A B C D E F G H I J K L M N O P Q R S T U V W X Y Z

Children Collide - Summer Assassin tab

-------------------------------------------------------------------------------
                                           Summer Assassin - Children Collide
-------------------------------------------------------------------------------
Tabbed by: YersenPestis

sounds best with middle pick up, reverb and delay and overdrive (except no overdrive on the 
verses)

notes (especially on the tremolo0 bit are a rough guide for how long to play each note for

parts

intro
verse
chorus
bridge
verse
chorus
verse (outro)

Tuning: standard

intro

e|-----------------------------------------------------------------------------|
B|-----------------------------------------------------------------------------|
G|-----------------------------------------------------------------------------|
D|--7~~~~~~~~~~~~7-------------------------------------------------------------|
A|-----------------------------------------------------------------------------|
E|--5~~~~~~~~~~~~5-------------------------------------------------------------|

verse

e|--5------------7----5-------7-----2-------1----5-----------------------------|
B|--5------------7----5-------7-----2-------1----5--------------x2-------------|
G|--5------------7----5-------7-----2-------1----5-----------------------------|
D|-----------------------------------------------------------------------------|
A|-----------------------------------------------------------------------------|
E|-----------------------------------------------------------------------------|

Chorus, i know who you really are.. (open strings optional)

e|---------------------------------------------------0---00-------------------|
B|---------------------------------------------------0---00-------------------|
G|--121212121212121212-888888888-555555555-------0---00-----------------------|
D|---------------------------------------------5555-7xxx77--------------------|
A|--101010101010101010-666666666-333333333------------------------------------|
E|----------------------------------------------3333-5xxx55-------------------|


e|-----------------------------------------------------------------------------|
B|-----------------------------------------------------------------------------|
G|--121212121212121212-888888888-555555555-------------------------------------|
D|---------------------------------------------55~~----------------------------|
A|--101010101010101010-666666666-333333333-------------------------------------|
E|---------------------------------------------33~~----------------------------|


bridge, it's a shame.. x2

e|-----------------------------------------------------------------------------|
B|---10-10---10-10---10/14-14---14-14--14/15-15---15-15-15\14-14--14--14\------|
G|-----------------------------------------------------------------------------|
D|-----------------------------------------------------------------------------|
A|-----------------------------------------------------------------------------|
E|-----------------------------------------------------------------------------|

with tremolo picking

e|-----------------------------------------------------------------------------|
B|-88888888888888877777777777755555555555333333333332222222222-----x3----------|
G|-----------------------------------------------------------------------------|
D|-----------------------------------------------------------------------------|
A|-----------------------------------------------------------------------------|
E|-----------------------------------------------------------------------------|

e|-----------------------------------------------------------------------------|
B|--223355555533332222332222333355551010101010101010101012121212121212---------|
G|-----------------------------------------------------------------------------|
D|-----------------------------------------------------------------------------|
A|-----------------------------------------------------------------------------|
E|-----------------------------------------------------------------------------|

e|-----------------------------------------------------------------------------|
B|-88888888888888888810101010101010777777777777888888888885555555555-----------|
G|-----------------------------------------------------------------------------|
D|-----------------------------------------------------------------------------|
A|-----------------------------------------------------------------------------|
E|-----------------------------------------------------------------------------|

e|-----------------------------------------------------------------------------|
B|-777777777778888888888855555555557777777777733333333225555555552222----------|
G|-----------------------------------------------------------------------------|
D|-----------------------------------------------------------------------------|
A|-----------------------------------------------------------------------------|
E|-----------------------------------------------------------------------------|


e|---------------------------------------------------------------------------|
B|-3333777338888888888888877777777777555555333333222222333333555552222-|
G|---------------------------------------------------------------------------|
D|---------------------------------------------------------------------------|
A|---------------------------------------------------------------------------|
E|---------------------------------------------------------------------------|


e|-----------------------------------------------------------------------------|
B|-222222----------------------------------------------------------------------|
G|--------2222222~~~~~~~~------------------------------------------------------|
D|-----------------------------------------------------------------------------|
A|-----------------------------------------------------------------------------|
E|-----------------------------------------------------------------------------|

verse 2

e|--5------------7----5-------7-----2-------1----5-----------------------------|
B|--5------------7----5-------7-----2-------1----5--------------x1-------------|
G|--5------------7----5-------7-----2-------1----5-----------------------------|
D|-----------------------------------------------------------------------------|
A|-----------------------------------------------------------------------------|
E|-----------------------------------------------------------------------------|

chorus 2

e|---------------------------------------------------0---00-------------------|
B|---------------------------------------------------0---00-------------------|
G|--121212121212121212-888888888-555555555-------0---00-----------------------|
D|---------------------------------------------5555-7xxx77--------------------|
A|--101010101010101010-666666666-333333333------------------------------------|
E|----------------------------------------------3333-5xxx55-------------------|

e|---------------------------------------------------0---00-------------------|
B|---------------------------------------------------0---00-------------------|
G|--121212121212121212-888888888-555555555-------0---00-----------------------|
D|---------------------------------------------5555-7xxx77--------------------|
A|--101010101010101010-666666666-333333333------------------------------------|
E|----------------------------------------------3333-5xxx55-------------------|

e|---------------------------------------------------0---00-------------------|
B|---------------------------------------------------0---00-------------------|
G|--121212121212121212-888888888-555555555-------0---00-----------------------|
D|---------------------------------------------5555-7xxx77--------------------|
A|--101010101010101010-666666666-333333333------------------------------------|
E|----------------------------------------------3333-5xxx55-------------------|

e|-----------------------------------------------------------------------------|
B|-----------------------------------------------------------------------------|
G|--121212121212121212-888888888-555555555-------------------------------------|
D|---------------------------------------------55~~----------------------------|
A|--101010101010101010-666666666-333333333-------------------------------------|
E|---------------------------------------------33~~----------------------------|

outro

e|--5------------7----5-------7-----2-------1----5-----------------------------|
B|--5------------7----5-------7-----2-------1----5--------------x1-------------|
G|--5------------7----5-------7-----2-------1----5-----------------------------|
D|-----------------------------------------------------------------------------|
A|-----------------------------------------------------------------------------|
E|-----------------------------------------------------------------------------|
Tap to rate this tab
# A B C D E F G H I J K L M N O P Q R S T U V W X Y Z