Song name
# A B C D E F G H I J K L M N O P Q R S T U V W X Y Z

Children Of Bodom - One Day You Will Cry tab

Help us improve GuitareTab! Take a short survey!
#----------------------------------PLEASE NOTE---------------------------------#
#This file is the author's own work and represents their interpretation of the #
#song. You may only use this file for private study, scholarship, or research. #
#------------------------------------------------------------------------------##


Gtr I (C G C F A D) - 'Untitled'

    Q=85
   4/4
    Gtr I
    S S  S S S S S S S S S S  S S S S
||-----------------------------------|
||o----------------------------------|
||-----------------------------------|
||---------------------9-7-----------|
||o---7-10---9---5-7---------10---7-9|
||--0------0---0-----0-----0----0----|


  S S  S S S S S S S S  S S S S S S
|------------------------------------||
|-----------------------------------o||
|------------------------------------||
|------------------------------------||
|---7-10---9---5-7--------------7-5-o||
|-0------0---0-----0-7-10-0-9-0------||


Related for One Day You Will Cry tab