Song name
# A B C D E F G H I J K L M N O P Q R S T U V W X Y Z

Children Of Bodom - Smile Pretty For The Devil tab

                          Smile Pretty For The Devil - Children Of Bodom


Tuning:Tune down 1 step
D G C F A D

Tempo:205 bpm                           


                                                               
Guitar 1



     PM        PM                                      PM        PM  
     E  E   E  E     E    E  Q    H           H        E  E   E  E   
D||---------------|------------------------|------------------------|
A||---------------|------------------------|------------------------|
F||---------------|------------------------|------------------------|
C||-----7S--9-----|--9S--10----------------|--------------9S--7-----|
G||-----5S--7-----|--7S---8----------------|--------------7S--5-----|
D||--0---------0--|------------------------|-----------0---------0--|


                                   PM        PM                           
  E   E  Q    H           H        E  E   E  E     E    E  Q    H         
-----------------------|------------------------|------------------------|
-----------------------|------------------------|------------------------|
-----------------------|------------------------|------------------------|
--7S--9----------------|--------------7S--9-----|--9S--10----------------|
--5S--7----------------|--------------5S--7-----|--7S---8----------------|
-----------------------|-----------0---------0--|------------------------|


              PM PM                                             
  H        E  E  E  E     W                   W                 
-----------------------|-------------------|-------------------|
-----------------------|-------------------|-------------------|
-----------------------|-------------------|-------------------|
-----------------------|-------------------|-------------------|
--------------2--2-----|--2----------------|--L----------------|
--------------0--0-----|--0----------------|--L----------------|


    \1/                                     PM       PM        PM      
    W                   W                   E  E  E  E  E   E  E  E    
---------------------|-------------------|----------------------------|
---------------------|-------------------|----------------------------|
--<>7----------------|--L----------------|----------------------------|
---------------------|-------------------|-----7--9-----9--10-----7S--|
---------------------|-------------------|-----5--7-----7---7-----5S--|
---------------------|-------------------|--0--------0---------0------|


     PM PM     PM     PM       PM        PM         PM      
  E  E  E   E  E   E  E  E     E  E   E  E  E    E  E  E    
----------------------------|------------------------------|
----------------------------|------------------------------|
-----------12---------------|------------------------------|
--9---------9-----10--------|-----7S--9-----9S--10-----7S--|
--7---------------10-----9--|-----5S--7-----7S---8-----5S--|
-----0--0------0---8--0-----|--0---------0----------0------|


     PM PM    PM               PM        PM        PM     
  E  E  E  E  E  E   E   E     E  E   E  E  E   E  E  E   
----------------------------|----------------------------|
----------------------------|----------------------------|
-----------9------------10--|----------------------------|
--9--------------8----------|-----7S--9-----9--10-----7--|
--7-----------------10------|-----5S--7-----7---7-----5--|
-----0--0-----0-------------|--0---------0---------0-----|


     PM PM     PM     PM       PM        PM         PM      
  E  E  E   E  E   E  E  E     E  E   E  E  E    E  E  E    
----------------------------|------------------------------|
----------------------------|------------------------------|
-----------12---------------|------------------------------|
--9---------9-----10-----7--|-----7S--9-----9S--10-----7S--|
--7---------------10-----9--|-----5S--7-----7S---8-----5S--|
-----0--0------0---8--0-----|--0---------0----------0------|


     PM PM                   PM       PM        PM      
  E  E  E  E  E  E  E  E     E  E  E  E  E   E  E  E    
--------------------------|----------------------------|
--------------------------|----------------------------|
--------------------------|----------------------------|
--9--------9-----8-----7--|-----7--9-----9--10-----7S--|
--7-----------9-----8-----|-----5--7-----7---7-----5S--|
-----0--0-----------------|--0--------0---------0------|


     PM PM     PM     PM       PM        PM         PM      
  E  E  E   E  E   E  E  E     E  E   E  E  E    E  E  E    
----------------------------|------------------------------|
----------------------------|------------------------------|
-----------12---------------|------------------------------|
--9---------9-----10-----7--|-----7S--9-----9S--10-----7S--|
--7---------------10-----5--|-----5S--7-----7S---8-----5S--|
-----0--0------0---8--0-----|--0---------0----------0------|


     PM PM    PM                                                      
  E  E  E  E  E  E   E   E     W                   H        H         
----------------------------|-------------------|--------------------|
----------------------------|-------------------|--------------------|
-----------9------------10--|--7----------------|-----------5--------|
--9--------------8----------|--7----------------|--5--------5--------|
--7-----------------10------|--5----------------|--5--------3--------|
-----0--0-----0-------------|-------------------|--3-----------------|


  PM        PM         PM           PM PM                 
  E  E   E  E  E    E  E  E      E  E  E  E  E  E  E  E   
------------------------------|--------------------------|
------------------------------|--------------------------|
------------------------------|--------------------------|
-----7S--9-----9S--10-----7S--|--9--------9-----8-----7--|
-----5S--7-----7S---8-----5S--|--7-----------9-----8-----|
--0---------0----------0------|-----0--0-----------------|


  PM       PM        PM           PM PM     PM     PM     
  E  E  E  E  E   E  E  E      E  E  E   E  E   E  E  E   
----------------------------|----------------------------|
----------------------------|----------------------------|
----------------------------|-----------12---------------|
-----7--9-----9--10-----7S--|--9---------9-----10-----7--|
-----5--7-----7---7-----5S--|--7---------------10-----5--|
--0--------0---------0------|-----0--0------0---8--0-----|


  PM        PM         PM           PM PM    PM                                 
  E  E   E  E  E    E  E  E      E  E  E  E  E  E   E   E     W                 
------------------------------|----------------------------|-------------------|
------------------------------|----------------------------|-------------------|
------------------------------|-----------9------------10--|-------------------|
-----7S--9-----9S--10-----7S--|--9--------------8----------|--4----------------|
-----5S--7-----7S---8-----5S--|--7-----------------10------|--4----------------|
--0---------0----------0------|-----0--0-----0-------------|--2----------------|


                      PM        PM         PM           PM PM                 
  W                   E  E   E  E  E    E  E  E      E  E  E  E  E  E  E  E   
-------------------|------------------------------|--------------------------|
-------------------|------------------------------|--------------------------|
-------------------|------------------------------|--------------------------|
--3----------------|-----7S--9-----9S--10-----7S--|--9--------9-----8-----7--|
--3----------------|-----5S--7-----7S---8-----5S--|--7-----------9-----8-----|
--1----------------|--0---------0----------0------|-----0--0-----------------|


  E  E  E  E  E  E  E  E     E  E  E  E  E  E  E  E   
--------------------------|--------------------------|
--------------------------|--------------------------|
--------------------------|--------------------------|
--------------------------|--------------------4--5--|
--------------------------|--------------2--5--------|
--7--0--2--3--0--0--0--0--|--6--0--3--5--------------|


                    PM PM                                     
  E  E  E  E  E  E  E  E      E   E   E   E   E   E   E   E   
--------------------------|----------------------------------|
--------------------------|----------------------------------|
--------------------------|--16--12--14--16--12--------------|
--------------------------|----------------------14--16--12--|
--------------------------|----------------------------------|
--7--0--2--3--0--0--0--0--|----------------------------------|


  E  E  E  E  E  E  E  E     E  E  E  E  E  E  E  E   
--------------------------|--------------------------|
--------------------------|--------------------------|
--------------------------|--------------------------|
--------------------------|--------------------4--5--|
--------------------------|--------------2--5--------|
--7--0--2--3--0--0--0--0--|--6--0--3--5--------------|


  E  E  E  E  E  E  E  E      E   E   E   E   E   E   E   E   
--------------------------|----------------------------------|
--------------------------|----------------------------------|
--------------------------|--16--12--14--16--12--------------|
--------------------------|----------------------14--16--12--|
--------------------------|----------------------------------|
--7--0--2--3--0--0--0--0--|----------------------------------|


  PM       PM        PM           PM PM     PM     PM     
  E  E  E  E  E   E  E  E      E  E  E   E  E   E  E  E   
----------------------------|----------------------------|
----------------------------|----------------------------|
----------------------------|-----------12---------------|
-----7--9-----9--10-----7S--|--9---------9-----10-----7--|
-----5--7-----7---7-----5S--|--7---------------10-----5--|
--0--------0---------0------|-----0--0------0---8--0-----|


  PM        PM         PM           PM PM    PM                                 
  E  E   E  E  E    E  E  E      E  E  E  E  E  E   E   E     W                 
------------------------------|----------------------------|-------------------|
------------------------------|----------------------------|-------------------|
------------------------------|-----------9------------10--|--7----------------|
-----7S--9-----9S--10-----7S--|--9--------------8----------|--7----------------|
-----5S--7-----7S---8-----5S--|--7-----------------10------|--5----------------|
--0---------0----------0------|-----0--0-----0-------------|-------------------|


                       PM        PM         PM           PM PM                 
  H        H           E  E   E  E  E    E  E  E      E  E  E  E  E  E  E  E   
--------------------|------------------------------|--------------------------|
--------------------|------------------------------|--------------------------|
-----------5--------|------------------------------|--------------------------|
--5--------5--------|-----7S--9-----9S--10-----7S--|--9--------9-----8-----7--|
--5--------3--------|-----5S--7-----7S---8-----5S--|--7-----------9-----8-----|
--3-----------------|--0---------0----------0------|-----0--0-----------------|


  PM       PM        PM           PM PM     PM     PM     
  E  E  E  E  E   E  E  E      E  E  E   E  E   E  E  E   
----------------------------|----------------------------|
----------------------------|----------------------------|
----------------------------|-----------12---------------|
-----7--9-----9--10-----7S--|--9---------9-----10-----7--|
-----5--7-----7---7-----5S--|--7---------------10-----5--|
--0--------0---------0------|-----0--0------0---8--0-----|


  PM        PM         PM           PM PM    PM                                 
  E  E   E  E  E    E  E  E      E  E  E  E  E  E   E   E     W                 
------------------------------|----------------------------|-------------------|
------------------------------|----------------------------|-------------------|
------------------------------|-----------9------------10--|-------------------|
-----7S--9-----9S--10-----7S--|--9--------------8----------|--4----------------|
-----5S--7-----7S---8-----5S--|--7-----------------10------|--4----------------|
--0---------0----------0------|-----0--0-----0-------------|--2----------------|


                      PM        PM         PM           PM PM PM              
  W                   E  E   E  E  E    E  E  E      E  E  E  E  E  E  E  E   
-------------------|------------------------------|--------------------------|
-------------------|------------------------------|--------------------------|
-------------------|------------------------------|--------------------------|
--3----------------|-----7S--9-----9S--10-----7S--|--9-----------------------|
--3----------------|-----5S--7-----7S---8-----5S--|--7-----------5--5--5--3--|
--1----------------|--0---------0----------0------|-----0--0--0--3--3--3--1--|


  E  E  E  E  E  E  E  E     E  E  E  E  E  E  E  E   
--------------------------|--------------------------|
--------------------------|--------------------------|
--------------------------|--------------------------|
--------------------------|--------------------------|
--L--3--3--3--3--3--3--3--|--3--3--3--3--5--5--5--3--|
--L--1--1--1--1--1--1--1--|--1--1--1--1--3--3--3--1--|


  E  E  E  E  E  E  E  E     E  E  E  E  E   E  E  E   
--------------------------|---------------------------|
--------------------------|---------------------------|
--------------------------|---------------------------|
--------------------------|---------------------------|
--L--3--3--3--3--3--3--3--|--3--3--3--3--5s--8--8--7--|
--L--1--1--1--1--1--1--1--|--1--1--1--1--3s--6--6--0--|


     PM    PM    PM    PM                                 
  E  E  E  E  E  E  E  E     E  E  E   E   E   E  E   E   
--------------------------|------------------------------|
--------------------------|------------------------------|
--------------------------|--9---------------------------|
--------------------------|-----------12------12-----12--|
--L-----7-----7-----7-----|-----7--9------10------9------|
--L--0-----0-----0-----0--|------------------------------|


     PM    PM    PM    PM       PM                         
  E  E  E  E  E  E  E  E     E  E  E   E   E   E   E   E   
--------------------------|-------------------------------|
--------------------------|-------------------------------|
--------------------------|-------------------------------|
--------------------------|-----------12------12---L--10--|
--7-----7-----7-----7-----|--7-----9------10---L--10---8--|
-----0-----0-----0-----0--|-----0-------------------------|


  E   E   E   E   E   E   E   E      E   E   E   E   E   E   E   E   
---------------------------------|----------------------------------|
---------------------------------|----------------------------------|
---------------------------------|----------------------------------|
--L--10--10--10--10--10--10--10--|--10--10--10--10--12--12--12--10--|
--L---8---8---8---8---8---8---8--|---8---8---8---8--10--10--10---8--|
---------------------------------|----------------------------------|


  E   E   E   E   E   E   E   E      E   E   E   E   E    E   E  E   
---------------------------------|----------------------------------|
---------------------------------|----------------------------------|
---------------------------------|----------------------------------|
--L--10--10--10--10--10--10--10--|--10--10--10--10--12s--15--15-----|
--L---8---8---8---8---8---8---8--|---8---8---8---8--10s--13--13--7--|
---------------------------------|-------------------------------0--|


     PM    PM    PM    PM                                 
  E  E  E  E  E  E  E  E     E  E  E   E   E   E  E   E   
--------------------------|------------------------------|
--------------------------|------------------------------|
--------------------------|--9---------------------------|
--------------------------|-----------12------12-----12--|
--L-----7-----7-----7-----|-----7--9------10------9------|
--L--0-----0-----0-----0--|------------------------------|


     PM    PM    PM    PM                                  
  E  E  E  E  E  E  E  E     E  E  E   E   E   E   E   E   
--------------------------|-------------------------------|
--------------------------|-------------------------------|
--------------------------|-------------------------------|
--------------------------|-----9-----12------12----------|
--7-----7-----7-----7-----|--7--L--9---L--10---L--10--10--|
-----0-----0-----0-----0--|------------------------8---8--|


  E  E  E  E  E  E  E  E     E  E  E  E  E  E  E  E   
--------------------------|--------------------------|
--------------------------|--------------------------|
--------------------------|--------------------------|
--------------------------|--------------------4--5--|
--------------------------|--------------2--5--------|
--7--0--2--3--0--0--0--0--|--6--0--3--5--------------|


                    PM PM                                     
  E  E  E  E  E  E  E  E      E   E   E   E   E   E   E   E   
--------------------------|----------------------------------|
--------------------------|----------------------------------|
--------------------------|--16--12--14--16--12--------------|
--------------------------|----------------------14--16--12--|
--------------------------|----------------------------------|
--7--0--2--3--0--0--0--0--|----------------------------------|


                       PM  PM  PM                                      
   E   E   E   E   E   E   E   E      E   E   E   E   E   E   E    E   
----------------------------------|-----------------------------------|
----------------------------------|-----------------------------------|
----------------------------------|-----------------------------------|
----------------------------------|--------------------------16h--17--|
--14------------------------------|--13----------12--14--17-----------|
------12--14--15--12--12--12--12--|------12--15-----------------------|


                       PM  PM  PM     PM  PM           PM  PM           
   E   E   E   E   E   E   E   E      E   E   E    E   E   E   E    E   
----------------------------------|------------------------------------|
----------------------------------|------------------------------------|
----------------------------------|------------------------------------|
----------------------------------|----------16h--17----------16h--17--|
--14------------------------------|--14--17-----------14--17-----------|
------12--14--15--12--12--12--12--|------------------------------------|


  \1/                                                                           
  W                   W                   W                   W                 
-------------------|-------------------|-------------------|-------------------|
-------------------|-------------------|-------------------|-------------------|
-------------------|-------------------|-------------------|-------------------|
-------------------|-------------------|-------------------|-------------------|
--2----------------|--L----------------|--L----------------|--L----------------|
--0----------------|--L----------------|--L----------------|--L----------------|


  PM       PM                                    PM       PM              
  E  E  E  E  E   E  Q       W                   E  E  E  E  E   E  Q     
--------------------------|-------------------|--------------------------|
--------------------------|-------------------|--------------------------|
--------------------------|-------------------|--------------------------|
-----7--9-----9--10-------|-------------------|-----7--9-----9--10-------|
-----5--7-----7---7-------|-------------------|-----5--7-----7---8-------|
--0--------0--------------|-------------------|--0--------0--------------|


                           PM PM PM PM PM PM    PM PM PM PM PM PM PM PM  
  W                   Q    E  E  E  E  E  E     E  E  E  E  E  E  E  E   
-------------------|-------------------------|--------------------------|
-------------------|-------------------------|--------------------------|
-------------------|--7----------------------|--------------------------|
-------------------|--7----------------------|--5--5--5--5--------------|
-------------------|--5----5--5--5--5--5--5--|--------------3--3--3--3--|
-------------------|-------------------------|--------------------------|


  PM        PM         PM           PM PM                 
  E  E   E  E  E    E  E  E      E  E  E  E  E  E  E  E   
------------------------------|--------------------------|
------------------------------|--------------------------|
------------------------------|--------------------------|
-----7S--9-----9S--10-----7S--|--9--------9-----8-----7--|
-----5S--7-----7S---8-----5S--|--7-----------9-----8-----|
--0---------0----------0------|-----0--0-----------------|


  PM       PM        PM           PM PM     PM     PM     
  E  E  E  E  E   E  E  E      E  E  E   E  E   E  E  E   
----------------------------|----------------------------|
----------------------------|----------------------------|
----------------------------|-----------12---------------|
-----7--9-----9--10-----7S--|--9---------9-----10-----7--|
-----5--7-----7---7-----5S--|--7---------------10-----5--|
--0--------0---------0------|-----0--0------0---8--0-----|


  PM        PM         PM           PM PM    PM                                 
  E  E   E  E  E    E  E  E      E  E  E  E  E  E   E   E     W                 
------------------------------|----------------------------|-------------------|
------------------------------|----------------------------|-------------------|
------------------------------|-----------9------------10--|-------------------|
-----7S--9-----9S--10-----7S--|--9--------------8----------|--4----------------|
-----5S--7-----7S---8-----5S--|--7-----------------10------|--4----------------|
--0---------0----------0------|-----0--0-----0-------------|--2----------------|


                                PM         PM           PM PM PM              
  W                   E  E   E  E  E    E  E  E      E  E  E  E  E  E  E  E   
-------------------|------------------------------|--------------------------|
-------------------|------------------------------|--------------------------|
-------------------|------------------------------|--------------------------|
--3----------------|-----7S--9-----9S--10-----7S--|--9-----------------------|
--3----------------|-----5S--7-----7S---8-----5S--|--7-----------5--5--5--3--|
--1----------------|------------0----------0------|-----0--0--0--3--3--3--1--|


  E  E  E  E  E  E  E  E     E  E  E  E  E  E  E  E   
--------------------------|--------------------------|
--------------------------|--------------------------|
--------------------------|--------------------------|
--------------------------|--------------------------|
--L--3--3--3--3--3--3--3--|--3--3--3--3--5--5--5--3--|
--L--1--1--1--1--1--1--1--|--1--1--1--1--3--3--3--1--|


  E  E  E  E  E  E  E  E     E  E  E  E  E   E  E  E   
--------------------------|---------------------------|
--------------------------|---------------------------|
--------------------------|---------------------------|
--------------------------|---------------------------|
--L--3--3--3--3--3--3--3--|--3--3--3--3--5s--8--8--7--|
--L--1--1--1--1--1--1--1--|--1--1--1--1--3s--6--6--0--|


     PM    PM    PM    PM                                 
  E  E  E  E  E  E  E  E     E  E  E   E   E   E  E   E   
--------------------------|------------------------------|
--------------------------|------------------------------|
--------------------------|--9---------------------------|
--------------------------|-----------12------12-----12--|
--L-----7-----7-----7-----|-----7--9------10------9------|
--L--0-----0-----0-----0--|------------------------------|


     PM    PM    PM    PM       PM                         
  E  E  E  E  E  E  E  E     E  E  E   E   E   E   E   E   
--------------------------|-------------------------------|
--------------------------|-------------------------------|
--------------------------|-------------------------------|
--------------------------|-----------12------12---L--10--|
--7-----7-----7-----7-----|--7-----9------10---L--10---8--|
-----0-----0-----0-----0--|-----0-------------------------|


  E   E   E   E   E   E   E   E      E   E   E   E   E   E   E   E   
---------------------------------|----------------------------------|
---------------------------------|----------------------------------|
---------------------------------|----------------------------------|
--L--10--10--10--10--10--10--10--|--10--10--10--10--12--12--12--10--|
--L---8---8---8---8---8---8---8--|---8---8---8---8--10--10--10---8--|
---------------------------------|----------------------------------|


  E   E   E   E   E   E   E   E      E   E   E   E   E    E   E  E   
---------------------------------|----------------------------------|
---------------------------------|----------------------------------|
---------------------------------|----------------------------------|
--L--10--10--10--10--10--10--10--|--10--10--10--10--12s--15--15-----|
--L---8---8---8---8---8---8---8--|---8---8---8---8--10s--13--13--7--|
---------------------------------|-------------------------------0--|


     PM    PM    PM    PM                                 
  E  E  E  E  E  E  E  E     E  E  E   E   E   E  E   E   
--------------------------|------------------------------|
--------------------------|------------------------------|
--------------------------|--9---------------------------|
--------------------------|-----------12------12-----12--|
--L-----7-----7-----7-----|-----7--9------10------9------|
--L--0-----0-----0-----0--|------------------------------|


     PM    PM    PM    PM                                  
  E  E  E  E  E  E  E  E     E  E  E   E   E   E   E   E   
--------------------------|-------------------------------|
--------------------------|-------------------------------|
--------------------------|-------------------------------|
--------------------------|-----9-----12------12----------|
--7-----7-----7-----7-----|--7--L--9---L--10---L--10--10--|
-----0-----0-----0-----0--|------------------------8---8--|


  PM PM PM PM PM PM                                                      
  E  E  E  E  E  E  Q       W                   E  E  E  E  E  E  E  E   
-------------------------|-------------------|--------------------------|
-------------------------|-------------------|--------------------------|
-------------------------|-------------------|--------------------------|
--2--2--2--2--2--2-------|-------------------|--9--9--7--9--9--9-----7--|
--2--2--2--2--2--2-------|-------------------|--7--7--5--7--7--7-----5--|
--0--0--0--0--0--0-------|-------------------|--------------------------|


                         PM PM PM PM PM PM                           
  E  E  Q    H           E  E  E  E  E  E  Q       W                 
----------------------|-------------------------|-------------------|
----------------------|-------------------------|-------------------|
----------------------|-------------------------|-------------------|
-----7----------------|--2--2--2--2--2--2-------|-------------------|
-----5----------------|--2--2--2--2--2--2-------|-------------------|
----------------------|--0--0--0--0--0--0-------|-------------------|


  E  E  E  E   E   E  E  E     E  E  E  E   E   E  E  E   
----------------------------|----------------------------|
----------------------------|----------------------------|
----------------------------|----------------------------|
--9--9--7--7--12--12-----7--|-----7-----7--12--12--7--7--|
--7--7--5--5--10--10-----5--|-----5-----5--10--10--5--5--|
----------------------------|----------------------------|


  E  E  E   E   E   E   E  E      E  E   E  E   E   E  E   E   
------------------------------|-------------------------------|
------------------------------|-------------------------------|
-----9-----12------12---------|--12-----12---------12-----12--|
--7-----9------10------10--9--|------9------9--10------9------|
------------------------------|-------------------------------|
------------------------------|-------------------------------|


  E  E  E   E   E   E   E  E      E  E   E  E   E   E  E   E   
------------------------------|-------------------------------|
------------------------------|-------------------------------|
-----9-----12------12---------|--12-----12---------12-----12--|
--7-----9------10------10--9--|------9------9--10------9------|
------------------------------|-------------------------------|
------------------------------|-------------------------------|


  E  E  E   E   E   E   E  E      E  E   E  E   E   E  E   E   
------------------------------|-------------------------------|
------------------------------|-------------------------------|
-----9-----12------12---------|--12-----12---------12-----12--|
--7-----9------10------10--9--|------9------9--10------9------|
------------------------------|-------------------------------|
------------------------------|-------------------------------|


  E  E  E   E  E   E  E   E      E   E   E   E   E   E   E   E   
-----------------------------|----------------------------------|
-----------------------------|----------------------------------|
-----9-----12-----10---------|--12------12------14------12------|
--7-----9------8------8--10--|------10------10------10------10--|
-----------------------------|----------------------------------|
-----------------------------|----------------------------------|


   E   E   E   E   E   E   E   E      E   E   E   E   E   E   E   E   
----------------------------------|----------------------------------|
----------------------------------|----------------------------------|
------14------17------17----------|--17------17----------17------17--|
--12------14------15------15--14--|------14------14--15------14------|
----------------------------------|----------------------------------|
----------------------------------|----------------------------------|


   E   E   E   E   E   E   E   E      E   E   E   E   E   E   E   E   
----------------------------------|----------------------------------|
----------------------------------|----------------------------------|
------14------17------17----------|--17------17----------17------17--|
--12------14------15------15--14--|------14------14--15------14------|
----------------------------------|----------------------------------|
----------------------------------|----------------------------------|


   E   E   E   E   E   E   E   E      E   E   E   E   E   E   E   E   
----------------------------------|----------------------------------|
----------------------------------|----------------------------------|
------14------17------17----------|--17------17----------17------17--|
--12------14------15------15--14--|------14------14--15------14------|
----------------------------------|----------------------------------|
----------------------------------|----------------------------------|


   E   E   E   E   E   E   E   E      E   E   E   E   E   E   E   E   
----------------------------------|----------------------------------|
----------------------------------|----------------------------------|
------14------17------17----------|--19------19------21------19------|
--12------14------15------14--17--|------17------17------17------17--|
----------------------------------|----------------------------------|
----------------------------------|----------------------------------|


  H        Q    E  E     E   E  E  E  E   E  E  E     H        Q    E  E   
----------------------|----------------------------|----------------------|
----------------------|----------------------------|----------------------|
----------------------|----------------------------|----------------------|
----------------------|----------------------------|----------------------|
--7-------------7--7--|--7s--5--5--5--5s--3--3--3--|--7-------------7--7--|
--5-------------5--5--|--5s--3--3--3--3s--1--1--1--|--5-------------5--5--|


  E    E   E   E   E   E  E  E     H        Q    E  E   
--------------------------------|----------------------|
--------------------------------|----------------------|
--------------------------------|----------------------|
--------------------------------|----------------------|
--7s--10--10--10--10s--3--3--3--|--7-------------7--7--|
--5s---8---8---8---8s--1--1--1--|--5-------------5--5--|


  E   E  E  E  E   E  E  E     W                   H        H         
----------------------------|-------------------|--------------------|
----------------------------|-------------------|--------------------|
----------------------------|-------------------|--------------------|
----------------------------|--7----------------|--3-----------------|
--7s--5--5--5--5s--3--3--3--|--5----------------|--1--------6--------|
--5s--3--3--3--3s--1--1--1--|-------------------|-----------4--------|


  H        Q    E  E     E   E  E  E  E   E  E  E     H        Q    E  E   
----------------------|----------------------------|----------------------|
----------------------|----------------------------|----------------------|
----------------------|----------------------------|----------------------|
----------------------|----------------------------|----------------------|
--7-------------7--7--|--7s--5--5--5--5s--3--3--3--|--7-------------7--7--|
--5-------------5--5--|--5s--3--3--3--3s--1--1--1--|--5-------------5--5--|


  E    E   E   E   E   E  E  E     H        Q    E  E   
--------------------------------|----------------------|
--------------------------------|----------------------|
--------------------------------|----------------------|
--------------------------------|----------------------|
--7s--10--10--10--10s--3--3--3--|--7-------------7--7--|
--5s---8---8---8---8s--1--1--1--|--5-------------5--5--|


  E   E  E  E  E   E  E  E     W                   H        H         
----------------------------|-------------------|--------------------|
----------------------------|-------------------|--------------------|
----------------------------|-------------------|--------------------|
----------------------------|--7----------------|--3-----------------|
--7s--5--5--5--5s--3--3--3--|--5----------------|--1--------5--------|
--5s--3--3--3--3s--1--1--1--|-------------------|-----------3--------|


  H        Q    E  E     E   E  E  E  E   E  E  E     H        Q    E  E   
----------------------|----------------------------|----------------------|
----------------------|----------------------------|----------------------|
----------------------|----------------------------|----------------------|
----------------------|----------------------------|----------------------|
--6-------------6--6--|--6s--4--4--4--4s--2--2--2--|--6-------------6--6--|
--4-------------4--4--|--4s--2--2--2--2s--0--0--0--|--4-------------4--4--|


                      PM PM                         
  E   E  E  E  E   E  E  E     H        Q    E  E   
----------------------------|----------------------|
----------------------------|----------------------|
----------------------------|----------------------|
----------------------------|----------------------|
--6s--9--9--9--9s--2--2--2--|--6-------------6--6--|
--4s--7--7--7--7s--0--0--0--|--4-------------4--4--|


  E   E  E  E  E   E  E  E     W                   W                 
----------------------------|-------------------|-------------------|
----------------------------|-------------------|-------------------|
----------------------------|-------------------|-------------------|
----------------------------|-------------------|-------------------|
--6s--4--4--4--4s--2--2--2--|--3----------------|--2----------------|
--4s--2--2--2--2s--0--0--0--|--1----------------|--0----------------|


  H        Q    E  E     E   E  E  E  E   E  E  E     H        Q    E  E   
----------------------|----------------------------|----------------------|
----------------------|----------------------------|----------------------|
----------------------|----------------------------|----------------------|
----------------------|----------------------------|----------------------|
--6-------------6--6--|--6s--4--4--4--4s--2--2--2--|--6-------------6--6--|
--4-------------4--4--|--4s--2--2--2--2s--0--0--0--|--4-------------4--4--|


                      PM PM                         
  E   E  E  E  E   E  E  E     H        Q    E  E   
----------------------------|----------------------|
----------------------------|----------------------|
----------------------------|----------------------|
----------------------------|----------------------|
--6s--9--9--9--9s--2--2--2--|--6-------------6--6--|
--4s--7--7--7--7s--0--0--0--|--4-------------4--4--|


  E   E  E  E  E   E  E  E     W                   W                 
----------------------------|-------------------|-------------------|
----------------------------|-------------------|-------------------|
----------------------------|-------------------|-------------------|
----------------------------|-------------------|-------------------|
--6s--4--4--4--4s--2--2--2--|--3----------------|--2----------------|
--4s--2--2--2--2s--0--0--0--|--1----------------|--0----------------|


  H        Q    E  E     E   E  E  E  E   E  E  E     H        Q    E  E   
----------------------|----------------------------|----------------------|
----------------------|----------------------------|----------------------|
----------------------|----------------------------|----------------------|
--7-------------7--7--|--7s--5--5--5--5s--3--3--3--|--7-------------7--7--|
--5-------------5--5--|--5s--3--3--3--3s--1--1--1--|--5-------------5--5--|
----------------------|----------------------------|----------------------|


  E    E   E   E   E   E  E  E     H        Q    E  E   
--------------------------------|----------------------|
--------------------------------|----------------------|
--------------------------------|----------------------|
--7s--10--10--10--10s--3--3--3--|--7-------------7--7--|
--5s---8---8---8---8s--1--1--1--|--5-------------5--5--|
--------------------------------|----------------------|


  E   E  E  E  E   E  E  E     W                   W                 
----------------------------|-------------------|-------------------|
----------------------------|-------------------|-------------------|
----------------------------|-------------------|-------------------|
--7s--5--5--5--5s--3--3--3--|--4----------------|--3----------------|
--5s--3--3--3--3s--1--1--1--|--2----------------|--1----------------|
----------------------------|-------------------|-------------------|


  H        Q    E  E     E   E  E  E  E   E  E  E     H        Q    E  E   
----------------------|----------------------------|----------------------|
----------------------|----------------------------|----------------------|
----------------------|----------------------------|----------------------|
--7-------------7--7--|--7s--5--5--5--5s--3--3--3--|--7-------------7--7--|
--5-------------5--5--|--5s--3--3--3--3s--1--1--1--|--5-------------5--5--|
----------------------|----------------------------|----------------------|


  E    E   E   E   E   E  E  E     H        Q    E  E   
--------------------------------|----------------------|
--------------------------------|----------------------|
--------------------------------|----------------------|
--7s--10--10--10--10s--3--3--3--|--7-------------7--7--|
--5s---8---8---8---8s--1--1--1--|--5-------------5--5--|
--------------------------------|----------------------|


  E   E  E  E  E   E  E  E     W                   W                 
----------------------------|-------------------|-------------------|
----------------------------|-------------------|-------------------|
----------------------------|-------------------|-------------------|
--7s--5--5--5--5s--3--3--3--|--4----------------|--3----------------|
--5s--3--3--3--3s--1--1--1--|--2----------------|--1----------------|
----------------------------|-------------------|-------------------|


                       PM  PM                   
  H        H           E   E  E    E  H         
--------------------|--------------------------|
--------------------|--------------------------|
--------------------|---------9h--10-----------|
--7-----------------|--7--10-------------------|
--5-----------------|--------------------------|
--------------------|--------------------------|


  PM  PM         PM  PM              \1/                   
  E   E  E    E  E   E  E    E       H        E  E  Q      
--------------------------------|------------------------||
--------------------------------|------------------------||
---------9h--10---------9h--10--|--<>7--------L----------||
--7--10----------7--10----------|------------------------||
--------------------------------|------------------------||
--------------------------------|------------------------||




____________________________________________________________________________
****************************************************************************
____________________________________________________________________________



Guitar 2









     PM        PM                                      PM        PM  
     E  E   E  E     E    E  Q    H           H        E  E   E  E   
D||---------------|------------------------|------------------------|
A||---------------|------------------------|------------------------|
F||---------------|------------------------|------------------------|
C||-----7S--9-----|--9S--10----------------|--------------9S--7-----|
G||-----5S--7-----|--7S---8----------------|--------------7S--5-----|
D||--0---------0--|------------------------|-----------0---------0--|


                                   PM        PM                           
  E   E  Q    H           H        E  E   E  E     E    E  Q    H         
-----------------------|------------------------|------------------------|
-----------------------|------------------------|------------------------|
-----------------------|------------------------|------------------------|
--7S--9----------------|--------------7S--9-----|--9S--10----------------|
--5S--7----------------|--------------5S--7-----|--7S---8----------------|
-----------------------|-----------0---------0--|------------------------|


              PM PM                                             
  H        E  E  E  E     W                   W                 
-----------------------|-------------------|-------------------|
-----------------------|-------------------|-------------------|
-----------------------|-------------------|-------------------|
-----------------------|-------------------|-------------------|
--------------2--2-----|--2----------------|--L----------------|
--------------0--0-----|--0----------------|--L----------------|


                                            PM       PM        PM      
  W                   H        H            E  E  E  E  E   E  E  E    
-------------------|---------------------|----------------------------|
-------------------|---------------------|----------------------------|
-------------------|---------------------|----------------------------|
--9----------------|--L------------------|-----7--9-----9--10-----7S--|
--7----------------|--L--------7\--------|-----5--7-----7---7-----5S--|
-------------------|-----------7\--------|--0--------0---------0------|


     PM PM     PM     PM       PM        PM         PM      
  E  E  E   E  E   E  E  E     E  E   E  E  E    E  E  E    
----------------------------|------------------------------|
----------------------------|------------------------------|
----------------------------|------------------------------|
--9---------9-----10-----7--|-----7S--9-----9S--10-----7S--|
--7--------10-----10-----9--|-----5S--7-----7S---8-----5S--|
-----0--0------0---8--0-----|--0---------0----------0------|


     PM PM     PM               PM        PM        PM     
  E  E  E   E  E  E  E    E     E  E   E  E  E   E  E  E   
-----------------------------|----------------------------|
-----------------------------|----------------------------|
-----------------------------|----------------------------|
--9------------------9h--10--|-----7S--9-----9--10-----7--|
--7--------10-----9----------|-----5S--7-----7---7-----5--|
-----0--0------0-------------|--0---------0---------0-----|


     PM PM     PM     PM       PM        PM         PM      
  E  E  E   E  E   E  E  E     E  E   E  E  E    E  E  E    
----------------------------|------------------------------|
----------------------------|------------------------------|
----------------------------|------------------------------|
--9---------9-----10-----7--|-----7S--9-----9S--10-----7S--|
--7--------10-----10-----9--|-----5S--7-----7S---8-----5S--|
-----0--0------0---8--0-----|--0---------0----------0------|


     PM PM                      PM       PM        PM      
  E  E  E   E   E  E   E  E     E  E  E  E  E   E  E  E    
-----------------------------|----------------------------|
-----------------------------|----------------------------|
-----------------------------|----------------------------|
--9------------12-----11-----|-----7--9-----9--10-----7S--|
--7--------10------9------8--|-----5--7-----7---7-----5S--|
-----0--0--------------------|--0--------0---------0------|


     PM PM     PM     PM       PM        PM         PM      
  E  E  E   E  E   E  E  E     E  E   E  E  E    E  E  E    
----------------------------|------------------------------|
----------------------------|------------------------------|
----------------------------|------------------------------|
--9---------9-----10-----7--|-----7S--9-----9S--10-----7S--|
--7--------10-----10-----5--|-----5S--7-----7S---8-----5S--|
-----0--0------0---8--0-----|--0---------0----------0------|


     PM PM     PM                                                      
  E  E  E   E  E  E  E    E     W                   H        H         
-----------------------------|-------------------|--------------------|
-----------------------------|-------------------|--------------------|
-----------------------------|--7----------------|-----------5--------|
--9------------------9h--10--|--7----------------|--5--------5--------|
--7--------10-----9----------|--5----------------|--5--------3--------|
-----0--0------0-------------|-------------------|--3-----------------|


  PM        PM         PM           PM PM                    
  E  E   E  E  E    E  E  E      E  E  E   E   E  E   E  E   
------------------------------|-----------------------------|
------------------------------|-----------------------------|
------------------------------|-----------------------------|
-----7S--9-----9S--10-----7S--|--9------------12-----11-----|
-----5S--7-----7S---8-----5S--|--7--------10------9------8--|
--0---------0----------0------|-----0--0--------------------|


  PM       PM        PM           PM PM     PM     PM     
  E  E  E  E  E   E  E  E      E  E  E   E  E   E  E  E   
----------------------------|----------------------------|
----------------------------|----------------------------|
----------------------------|----------------------------|
-----7--9-----9--10-----7S--|--9---------9-----10-----7--|
-----5--7-----7---7-----5S--|--7--------10-----10-----5--|
--0--------0---------0------|-----0--0------0---8--0-----|


  PM        PM         PM           PM PM     PM             
  E  E   E  E  E    E  E  E      E  E  E   E  E  E  E    E   
------------------------------|-----------------------------|
------------------------------|-----------------------------|
------------------------------|-----------------------------|
-----7S--9-----9S--10-----7S--|--9------------------9h--10--|
-----5S--7-----7S---8-----5S--|--7--------10-----9----------|
--0---------0----------0------|-----0--0------0-------------|


                                          PM        PM         PM      
  W                   W                   E  E   E  E  E    E  E  E    
-------------------|-------------------|------------------------------|
-------------------|-------------------|------------------------------|
-------------------|-------------------|------------------------------|
--4----------------|--3----------------|-----7S--9-----9S--10-----7S--|
--4----------------|--3----------------|-----5S--7-----7S---8-----5S--|
--2----------------|--1----------------|--0---------0----------0------|


     PM PM                                               
  E  E  E   E   E  E   E  E     E  E  E  E  E  E  E  E   
-----------------------------|--------------------------|
-----------------------------|--------------------------|
-----------------------------|--------------------------|
--9------------12-----11-----|--------------------------|
--7--------10------9------8--|--------------------------|
-----0--0--------------------|--7--0--2--3--0--0--0--0--|


                                               PM PM                         
  E  E  E  E  E  E  E  E     E  E  E  E  E  E  E  E     Q    Q    Q    Q     
--------------------------|--------------------------|----------------------|
--------------------------|--------------------------|----------------------|
--------------------------|--------------------------|----------------------|
--------------------4--5--|--------------------------|-------5----9----7----|
--------------2--5--------|--------------------------|--5----3----7----5----|
--6--0--3--5--------------|--7--0--2--3--0--0--0--0--|--3-------------------|


                                         PM PM        
  E  E  E  E  E  E  E  E     E  E  E  E  E  E  E  E   
--------------------------|--------------------------|
--------------------------|--------------------------|
--------------------------|--------------------------|
--------------------------|--------------------4--5--|
--------------------------|--------------2--5--------|
--7--0--2--3--0--0--0--0--|--6--0--3--5--------------|


                                                    PM       PM        PM      
  E  E  E  E  E  E  E  E     Q    Q    Q    Q       E  E  E  E  E   E  E  E    
--------------------------|----------------------|----------------------------|
--------------------------|----------------------|----------------------------|
--------------------------|----------------------|----------------------------|
--------------------------|-------5----9----7----|-----7--9-----9--10-----7S--|
--------------------------|--5----3----7----5----|-----5--7-----7---7-----5S--|
--7--0--2--3--0--0--0--0--|--3-------------------|--0--------0---------0------|


     PM PM     PM     PM       PM        PM         PM      
  E  E  E   E  E   E  E  E     E  E   E  E  E    E  E  E    
----------------------------|------------------------------|
----------------------------|------------------------------|
----------------------------|------------------------------|
--9---------9-----10-----7--|-----7S--9-----9S--10-----7S--|
--7--------10-----10-----5--|-----5S--7-----7S---8-----5S--|
-----0--0------0---8--0-----|--0---------0----------0------|


     PM PM     PM                                                      
  E  E  E   E  E  E  E    E     W                   H        H         
-----------------------------|-------------------|--------------------|
-----------------------------|-------------------|--------------------|
-----------------------------|--7----------------|-----------5--------|
--9------------------9h--10--|--7----------------|--5--------5--------|
--7--------10-----9----------|--5----------------|--5--------3--------|
-----0--0------0-------------|-------------------|--3-----------------|


  PM        PM         PM           PM PM                    
  E  E   E  E  E    E  E  E      E  E  E   E   E  E   E  E   
------------------------------|-----------------------------|
------------------------------|-----------------------------|
------------------------------|-----------------------------|
-----7S--9-----9S--10-----7S--|--9------------12-----11-----|
-----5S--7-----7S---8-----5S--|--7--------10------9------8--|
--0---------0----------0------|-----0--0--------------------|


  PM       PM        PM           PM PM     PM     PM     
  E  E  E  E  E   E  E  E      E  E  E   E  E   E  E  E   
----------------------------|----------------------------|
----------------------------|----------------------------|
----------------------------|----------------------------|
-----7--9-----9--10-----7S--|--9---------9-----10-----7--|
-----5--7-----7---7-----5S--|--7--------10-----10-----5--|
--0--------0---------0------|-----0--0------0---8--0-----|


  PM        PM         PM           PM PM     PM             
  E  E   E  E  E    E  E  E      E  E  E   E  E  E  E    E   
------------------------------|-----------------------------|
------------------------------|-----------------------------|
------------------------------|-----------------------------|
-----7S--9-----9S--10-----7S--|--9------------------9h--10--|
-----5S--7-----7S---8-----5S--|--7--------10-----9----------|
--0---------0----------0------|-----0--0------0-------------|


                                          PM        PM         PM      
  W                   W                   E  E   E  E  E    E  E  E    
-------------------|-------------------|------------------------------|
-------------------|-------------------|------------------------------|
-------------------|-------------------|------------------------------|
--4----------------|--3----------------|-----7S--9-----9S--10-----7S--|
--4----------------|--3----------------|-----5S--7-----7S---8-----5S--|
--2----------------|--1----------------|--0---------0----------0------|


     PM PM PM                                         
  E  E  E  E  E  E  E  E     E  E  E  E  E  E  E  E   
--------------------------|--------------------------|
--------------------------|--------------------------|
--------------------------|--------------------------|
--9-----------------------|--------------------------|
--7-----------5--5--5--3--|--L--3--3--3--3--3--3--3--|
-----0--0--0--3--3--3--1--|--L--1--1--1--1--1--1--1--|


  E  E  E  E  E  E  E  E     E  E  E  E  E  E  E  E   
--------------------------|--------------------------|
--------------------------|--------------------------|
--------------------------|--------------------------|
--------------------------|--------------------------|
--3--3--3--3--5--5--5--3--|--L--3--3--3--3--3--3--3--|
--1--1--1--1--3--3--3--1--|--L--1--1--1--1--1--1--1--|


                                 PM    PM    PM    PM  
  E  E  E  E  E   E  E  E     E  E  E  E  E  E  E  E   
---------------------------|--------------------------|
---------------------------|--------------------------|
---------------------------|--------------------------|
---------------------------|--------------------------|
--3--3--3--3--5s--8--8--7--|--L-----7-----7-----7-----|
--1--1--1--1--3s--6--6--0--|--L--0-----0-----0-----0--|


       PM      PM      PM      PM       PM    PM    PM    PM  
   E   E   E   E   E   E   E   E     E  E  E  E  E  E  E  E   
----------------------------------|--------------------------|
----------------------------------|--------------------------|
----------------------------------|--------------------------|
----------------------------------|--------------------------|
--10------12------14------12------|--7-----7-----7-----7-----|
------12------14------15------14--|-----0-----0-----0-----0--|


       PM      PM                                                    
   E   E   E   E   E   E   E   E     E   E   E   E   E   E   E   E   
----------------------------------|---------------------------------|
----------------------------------|---------------------------------|
----------------------------------|---------------------------------|
------------------12--12--12--10--|--L--10--10--10--10--10--10--10--|
--10------12------10--10--10---8--|--L---8---8---8---8---8---8---8--|
------12------14------------------|---------------------------------|


   E   E   E   E   E   E   E   E     E   E   E   E   E   E   E   E   
----------------------------------|---------------------------------|
----------------------------------|---------------------------------|
----------------------------------|---------------------------------|
--10--10--10--10--12--12--12--10--|--L--10--10--10--10--10--10--10--|
---8---8---8---8--10--10--10---8--|--L---8---8---8---8---8---8---8--|
----------------------------------|---------------------------------|


                                        PM    PM    PM    PM  
   E   E   E   E   E    E   E  E     E  E  E  E  E  E  E  E   
----------------------------------|--------------------------|
----------------------------------|--------------------------|
----------------------------------|--------------------------|
--10--10--10--10--12s--15--15-----|--------------------------|
---8---8---8---8--10s--13--13--7--|--L-----7-----7-----7-----|
-------------------------------0--|--L--0-----0-----0-----0--|


       PM      PM      PM      PM       PM    PM    PM    PM  
   E   E   E   E   E   E   E   E     E  E  E  E  E  E  E  E   
----------------------------------|--------------------------|
----------------------------------|--------------------------|
----------------------------------|--------------------------|
----------------------------------|--------------------------|
--10------12------14------12------|--7-----7-----7-----7-----|
------12------14------15------14--|-----0-----0-----0-----0--|


       PM      PM      PM                                     
   E   E   E   E   E   E   E   E     E  E  E  E  E  E  E  E   
----------------------------------|--------------------------|
----------------------------------|--------------------------|
----------------------------------|--------------------------|
--------------------------10--10--|--------------------------|
--10------12------14------10--10--|--------------------------|
------12------14------15----------|--7--0--2--3--0--0--0--0--|


                                               PM PM                         
  E  E  E  E  E  E  E  E     E  E  E  E  E  E  E  E     Q    Q    Q    Q     
--------------------------|--------------------------|----------------------|
--------------------------|--------------------------|----------------------|
--------------------------|--------------------------|----------------------|
--------------------4--5--|--------------------------|-------5----5----4----|
--------------2--5--------|--------------------------|--5----3----7----5----|
--6--0--3--5--------------|--7--0--2--3--0--0--0--0--|--3-------------------|


                                         PM PM         
  E  E  E  E  E  E  E  E     E  E  E  E  E  E  E   E   
--------------------------|---------------------------|
--------------------------|---------------------------|
--------------------------|---------------------------|
--------------------------|--------------------4h--5--|
--------------------------|--------------2--5---------|
--7--0--2--3--0--0--0--0--|--6--0--3--5---------------|


                             PM PM        PM PM           \1/               
  E  E  E  E  E  E  E  E     E  E  E   E  E  E  E   E     W                 
--------------------------|----------------------------|-------------------|
--------------------------|----------------------------|-------------------|
--------------------------|----------------------------|-------------------|
--------------------------|--------4h--5--------4h--5--|-------------------|
--------------------------|--2--5---------2--5---------|--2----------------|
--7--0--2--3--0--0--0--0--|----------------------------|--0----------------|


  W                   W                   W                 
-------------------|-------------------|-------------------|
-------------------|-------------------|-------------------|
-------------------|-------------------|-------------------|
-------------------|-------------------|-------------------|
--L----------------|--L----------------|--L----------------|
--L----------------|--L----------------|--L----------------|


  PM       PM        PM          PM PM     PM     PM      
  E  E  E  E  E   E  E  E     E  E  E   E  E   E  E   E   
---------------------------|-----------------------------|
---------------------------|-----------------------------|
---------------------------|-----------------------------|
-----7--9-----9--10-----7--|--9---------9----------------|
-----5--7-----7---7-----5--|--7--------10-----10------9--|
--0--------0---------0-----|-----0--0------0---8--0--10--|


  PM       PM        PM          PM PM     PM    PM     
  E  E  E  E  E   E  E  E     E  E  E   E  E  E  E  E   
---------------------------|---------------------------|
---------------------------|---------------------------|
---------------------------|---------------------------|
-----7--9-----9--10-----7--|--9--------10-----9-----8--|
-----5--7-----7---8-----5--|--7---------8-----7-----6--|
--0--------0---------0-----|-----0--0------0-----0-----|


       PM PM PM PM PM PM    PM PM PM PM PM PM PM PM  
  Q    E  E  E  E  E  E     E  E  E  E  E  E  E  E   
-------------------------|--------------------------|
-------------------------|--------------------------|
-------------------------|--------------------------|
--7----------------------|--5--5--5--5--------------|
--5----5--5--5--5--5--5--|--------------3--3--3--3--|
-------------------------|--------------------------|


  PM        PM         PM           PM PM                    
  E  E   E  E  E    E  E  E      E  E  E   E   E  E   E  E   
------------------------------|-----------------------------|
------------------------------|-----------------------------|
------------------------------|-----------------------------|
-----7S--9-----9S--10-----7S--|--9------------12-----11-----|
-----5S--7-----7S---8-----5S--|--7--------10------9------8--|
--0---------0----------0------|-----0--0--------------------|


  PM       PM        PM           PM PM     PM     PM     
  E  E  E  E  E   E  E  E      E  E  E   E  E   E  E  E   
----------------------------|----------------------------|
----------------------------|----------------------------|
----------------------------|----------------------------|
-----7--9-----9--10-----7S--|--9---------9-----10-----7--|
-----5--7-----7---7-----5S--|--7--------10-----10-----5--|
--0--------0---------0------|-----0--0------0---8--0-----|


  PM        PM         PM           PM PM     PM             
  E  E   E  E  E    E  E  E      E  E  E   E  E  E  E    E   
------------------------------|-----------------------------|
------------------------------|-----------------------------|
------------------------------|-----------------------------|
-----7S--9-----9S--10-----7S--|--9------------------9h--10--|
-----5S--7-----7S---8-----5S--|--7--------10-----9----------|
--0---------0----------0------|-----0--0------0-------------|


                                                    PM         PM      
  W                   W                   E  E   E  E  E    E  E  E    
-------------------|-------------------|------------------------------|
-------------------|-------------------|------------------------------|
-------------------|-------------------|------------------------------|
--4----------------|--3----------------|-----7S--9-----9S--10-----7S--|
--4----------------|--3----------------|-----5S--7-----7S---8-----5S--|
--2----------------|--1----------------|------------0----------0------|


     PM PM PM                                         
  E  E  E  E  E  E  E  E     E  E  E  E  E  E  E  E   
--------------------------|--------------------------|
--------------------------|--------------------------|
--------------------------|--------------------------|
--9-----------------------|--------------------------|
--7-----------5--5--5--3--|--L--3--3--3--3--3--3--3--|
-----0--0--0--3--3--3--1--|--L--1--1--1--1--1--1--1--|


  E  E  E  E  E  E  E  E     E  E  E  E  E  E  E  E   
--------------------------|--------------------------|
--------------------------|--------------------------|
--------------------------|--------------------------|
--------------------------|--------------------------|
--3--3--3--3--5--5--5--3--|--L--3--3--3--3--3--3--3--|
--1--1--1--1--3--3--3--1--|--L--1--1--1--1--1--1--1--|


                                 PM    PM    PM    PM  
  E  E  E  E  E   E  E  E     E  E  E  E  E  E  E  E   
---------------------------|--------------------------|
---------------------------|--------------------------|
---------------------------|--------------------------|
---------------------------|--------------------------|
--3--3--3--3--5s--8--8--7--|--L-----7-----7-----7-----|
--1--1--1--1--3s--6--6--0--|--L--0-----0-----0-----0--|


       PM      PM      PM      PM       PM    PM    PM    PM  
   E   E   E   E   E   E   E   E     E  E  E  E  E  E  E  E   
----------------------------------|--------------------------|
----------------------------------|--------------------------|
----------------------------------|--------------------------|
----------------------------------|--------------------------|
--10------12------14------12------|--7-----7-----7-----7-----|
------12------14------15------14--|-----0-----0-----0-----0--|


       PM      PM                                                    
   E   E   E   E   E   E   E   E     E   E   E   E   E   E   E   E   
----------------------------------|---------------------------------|
----------------------------------|---------------------------------|
----------------------------------|---------------------------------|
------------------12--12--12--10--|--L--10--10--10--10--10--10--10--|
--10------12------10--10--10---8--|--L---8---8---8---8---8---8---8--|
------12------14------------------|---------------------------------|


   E   E   E   E   E   E   E   E     E   E   E   E   E   E   E   E   
----------------------------------|---------------------------------|
----------------------------------|---------------------------------|
----------------------------------|---------------------------------|
--10--10--10--10--12--12--12--10--|--L--10--10--10--10--10--10--10--|
---8---8---8---8--10--10--10---8--|--L---8---8---8---8---8---8---8--|
----------------------------------|---------------------------------|


                                        PM    PM    PM    PM  
   E   E   E   E   E    E   E  E     E  E  E  E  E  E  E  E   
----------------------------------|--------------------------|
----------------------------------|--------------------------|
----------------------------------|--------------------------|
--10--10--10--10--12s--15--15-----|--------------------------|
---8---8---8---8--10s--13--13--7--|--L-----7-----7-----7-----|
-------------------------------0--|--L--0-----0-----0-----0--|


       PM      PM      PM      PM       PM    PM    PM    PM  
   E   E   E   E   E   E   E   E     E  E  E  E  E  E  E  E   
----------------------------------|--------------------------|
----------------------------------|--------------------------|
----------------------------------|--------------------------|
----------------------------------|--------------------------|
--10------12------14------12------|--7-----7-----7-----7-----|
------12------14------15------14--|-----0-----0-----0-----0--|


       PM      PM      PM            PM PM PM PM PM PM       
   E   E   E   E   E   E   E   E     E  E  E  E  E  E  Q     
----------------------------------|-------------------------|
----------------------------------|-------------------------|
----------------------------------|-------------------------|
--------------------------10--10--|--2--2--2--2--2--2-------|
--10------12------14------10--10--|--2--2--2--2--2--2-------|
------12------14------15----------|--0--0--0--0--0--0-------|


  W                   E  E  E  E  E  E  E  E     E  E  Q    H         
-------------------|--------------------------|----------------------|
-------------------|--------------------------|----------------------|
-------------------|--------------------------|----------------------|
-------------------|--9--9--7--9--9--9-----7--|-----7----------------|
-------------------|--7--7--5--7--7--7-----5--|-----5----------------|
-------------------|--------------------------|----------------------|


  PM PM PM PM PM PM                                                        
  E  E  E  E  E  E  Q       W                   E  E  E  E   E   E  E  E   
-------------------------|-------------------|----------------------------|
-------------------------|-------------------|----------------------------|
-------------------------|-------------------|----------------------------|
--2--2--2--2--2--2-------|-------------------|--9--9--7--7--12--12-----7--|
--2--2--2--2--2--2-------|-------------------|--7--7--5--5--10--10-----5--|
--0--0--0--0--0--0-------|-------------------|----------------------------|


  E  E  E  E   E   E  E  E     E  E  E  E  E  E  E  E   
----------------------------|--------------------------|
----------------------------|--------------------------|
----------------------------|--5-----7-----9-----9--7--|
-----7-----7--12--12--7--7--|-----7-----5-----5--------|
-----5-----5--10--10--5--5--|--------------------------|
----------------------------|--------------------------|


  E  E  E  E  E  E  E  E     E  E  E  E  E  E  E  E   
--------------------------|--------------------------|
--------------------------|--------------------------|
-----7-----7--5-----7-----|--5-----7-----9-----9--7--|
--5-----5--------5-----5--|-----7-----5-----5--------|
--------------------------|--------------------------|
--------------------------|--------------------------|


  E  E  E  E  E  E  E  E     E  E  E  E  E  E  E  E   
--------------------------|--------------------------|
--------------------------|--------------------------|
-----7-----7--5-----7-----|--5-----7-----9-----9--7--|
--5-----5--------5-----5--|-----7-----5-----5--------|
--------------------------|--------------------------|
--------------------------|--------------------------|


  E  E  E  E  E  E  E  E     E  E  E  E  E  E  E  E   
--------------------------|--------------------------|
--------------------------|--------------------------|
-----7-----7--9-----7-----|--5-----7-----7-----7--9--|
--5-----5--------5-----5--|-----7-----5-----8--------|
--------------------------|--------------------------|
--------------------------|--------------------------|


   E  E   E  E   E   E  E   E      E   E   E   E   E   E   E   E   
-------------------------------|----------------------------------|
-------------------------------|----------------------------------|
------9------9--10------9------|--10------12------14------14--12--|
--10-----10---------10-----10--|------12------10------10----------|
-------------------------------|----------------------------------|
-------------------------------|----------------------------------|


   E   E   E   E   E   E   E   E      E   E   E   E   E   E   E   E   
----------------------------------|----------------------------------|
----------------------------------|----------------------------------|
------12------12--14------12------|--10------12------14------14--12--|
--10------10----------10------10--|------12------10------10----------|
----------------------------------|----------------------------------|
----------------------------------|----------------------------------|


   E   E   E   E   E   E   E   E      E   E   E   E   E   E   E   E   
----------------------------------|----------------------------------|
----------------------------------|----------------------------------|
------12------12--14------12------|--10------12------14------14--12--|
--10------10----------10------10--|------12------10------10----------|
----------------------------------|----------------------------------|
----------------------------------|----------------------------------|


   E   E   E   E   E   E   E   E      E   E   E   E   E   E   E   E   
----------------------------------|----------------------------------|
----------------------------------|----------------------------------|
------12------12--14------12------|--10------12------14------14--12--|
--10------10----------10------10--|------12------10------10----------|
----------------------------------|----------------------------------|
----------------------------------|----------------------------------|


   E   E   E   E   E   E   E   E     H        Q    E  E   
----------------------------------|----------------------|
------12------12--13--------------|----------------------|
--12------12----------12--14--12--|----------------------|
----------------------------------|----------------------|
----------------------------------|--7-------------7--7--|
----------------------------------|--5-------------5--5--|


  E   E  E  E  E   E  E  E     H        Q    E  E   
----------------------------|----------------------|
----------------------------|----------------------|
----------------------------|----------------------|
----------------------------|----------------------|
--7s--5--5--5--5s--3--3--3--|--7-------------7--7--|
--5s--3--3--3--3s--1--1--1--|--5-------------5--5--|


  E    E   E   E   E   E  E  E     H        Q    E  E   
--------------------------------|----------------------|
--------------------------------|----------------------|
--------------------------------|----------------------|
--------------------------------|----------------------|
--7s--10--10--10--10s--3--3--3--|--7-------------7--7--|
--5s---8---8---8---8s--1--1--1--|--5-------------5--5--|


  E   E  E  E  E   E  E  E     W                   H        H         
----------------------------|-------------------|--------------------|
----------------------------|-------------------|--------------------|
----------------------------|-------------------|--------------------|
----------------------------|--7----------------|--3-----------------|
--7s--5--5--5--5s--3--3--3--|--5----------------|--1--------6--------|
--5s--3--3--3--3s--1--1--1--|-------------------|-----------4--------|


  H        Q    E  E     E   E  E  E  E   E  E  E     H        Q    E  E   
----------------------|----------------------------|----------------------|
----------------------|----------------------------|----------------------|
----------------------|----------------------------|----------------------|
----------------------|----------------------------|----------------------|
--7-------------7--7--|--7s--5--5--5--5s--3--3--3--|--7-------------7--7--|
--5-------------5--5--|--5s--3--3--3--3s--1--1--1--|--5-------------5--5--|


  E    E   E   E   E   E  E  E     H        Q    E  E   
--------------------------------|----------------------|
--------------------------------|----------------------|
--------------------------------|----------------------|
--------------------------------|----------------------|
--7s--10--10--10--10s--3--3--3--|--7-------------7--7--|
--5s---8---8---8---8s--1--1--1--|--5-------------5--5--|


  E   E  E  E  E   E  E  E     W                   H        H         
----------------------------|-------------------|--------------------|
----------------------------|-------------------|--------------------|
----------------------------|-------------------|--------------------|
----------------------------|--7----------------|--3-----------------|
--7s--5--5--5--5s--3--3--3--|--5----------------|--1--------5--------|
--5s--3--3--3--3s--1--1--1--|-------------------|-----------3--------|


  H        Q    E  E     E   E  E  E  E   E  E  E     H        Q    E  E   
----------------------|----------------------------|----------------------|
----------------------|----------------------------|----------------------|
----------------------|----------------------------|----------------------|
----------------------|----------------------------|----------------------|
--6-------------6--6--|--6s--4--4--4--4s--2--2--2--|--6-------------6--6--|
--4-------------4--4--|--4s--2--2--2--2s--0--0--0--|--4-------------4--4--|


                      PM PM                         
  E   E  E  E  E   E  E  E     H        Q    E  E   
----------------------------|----------------------|
----------------------------|----------------------|
----------------------------|----------------------|
----------------------------|----------------------|
--6s--9--9--9--9s--2--2--2--|--6-------------6--6--|
--4s--7--7--7--7s--0--0--0--|--4-------------4--4--|


  E   E  E  E  E   E  E  E     W                   W                 
----------------------------|-------------------|-------------------|
----------------------------|-------------------|-------------------|
----------------------------|-------------------|-------------------|
----------------------------|-------------------|-------------------|
--6s--4--4--4--4s--2--2--2--|--3----------------|--2----------------|
--4s--2--2--2--2s--0--0--0--|--1----------------|--0----------------|


  H        Q    E  E     E   E  E  E  E   E  E  E     H        Q    E  E   
----------------------|----------------------------|----------------------|
----------------------|----------------------------|----------------------|
----------------------|----------------------------|----------------------|
----------------------|----------------------------|----------------------|
--6-------------6--6--|--6s--4--4--4--4s--2--2--2--|--6-------------6--6--|
--4-------------4--4--|--4s--2--2--2--2s--0--0--0--|--4-------------4--4--|


                      PM PM                         
  E   E  E  E  E   E  E  E     H        Q    E  E   
----------------------------|----------------------|
----------------------------|----------------------|
----------------------------|----------------------|
----------------------------|----------------------|
--6s--9--9--9--9s--2--2--2--|--6-------------6--6--|
--4s--7--7--7--7s--0--0--0--|--4-------------4--4--|


  E   E  E  E  E   E  E  E     W                   W                 
----------------------------|-------------------|-------------------|
----------------------------|-------------------|-------------------|
----------------------------|-------------------|-------------------|
----------------------------|-------------------|-------------------|
--6s--4--4--4--4s--2--2--2--|--3----------------|--2----------------|
--4s--2--2--2--2s--0--0--0--|--1----------------|--0----------------|


  H        Q    E  E     E   E  E  E  E   E  E  E     H        Q    E  E   
----------------------|----------------------------|----------------------|
----------------------|----------------------------|----------------------|
----------------------|----------------------------|----------------------|
--7-------------7--7--|--7s--5--5--5--5s--3--3--3--|--7-------------7--7--|
--5-------------5--5--|--5s--3--3--3--3s--1--1--1--|--5-------------5--5--|
----------------------|----------------------------|----------------------|


  E    E   E   E   E   E  E  E     H        Q    E  E   
--------------------------------|----------------------|
--------------------------------|----------------------|
--------------------------------|----------------------|
--7s--10--10--10--10s--3--3--3--|--7-------------7--7--|
--5s---8---8---8---8s--1--1--1--|--5-------------5--5--|
--------------------------------|----------------------|


  E   E  E  E  E   E  E  E     W                   W                 
----------------------------|-------------------|-------------------|
----------------------------|-------------------|-------------------|
----------------------------|-------------------|-------------------|
--7s--5--5--5--5s--3--3--3--|--4----------------|--3----------------|
--5s--3--3--3--3s--1--1--1--|--2----------------|--1----------------|
----------------------------|-------------------|-------------------|


  H        Q    E  E     E   E  E  E  E   E  E  E     H        Q    E  E   
----------------------|----------------------------|----------------------|
----------------------|----------------------------|----------------------|
----------------------|----------------------------|----------------------|
--7-------------7--7--|--7s--5--5--5--5s--3--3--3--|--7-------------7--7--|
--5-------------5--5--|--5s--3--3--3--3s--1--1--1--|--5-------------5--5--|
----------------------|----------------------------|----------------------|


  E    E   E   E   E   E  E  E     H        Q    E  E   
--------------------------------|----------------------|
--------------------------------|----------------------|
--------------------------------|----------------------|
--7s--10--10--10--10s--3--3--3--|--7-------------7--7--|
--5s---8---8---8---8s--1--1--1--|--5-------------5--5--|
--------------------------------|----------------------|


  E   E  E  E  E   E  E  E     W                   W                 
----------------------------|-------------------|-------------------|
----------------------------|-------------------|-------------------|
----------------------------|-------------------|-------------------|
--7s--5--5--5--5s--3--3--3--|--4----------------|--3----------------|
--5s--3--3--3--3s--1--1--1--|--2----------------|--1----------------|
----------------------------|-------------------|-------------------|


  H        H           W                   W                 
--------------------|-------------------|-------------------|
--------------------|-------------------|-------------------|
--------------------|-------------------|-------------------|
--7-----------------|-------------------|-------------------|
--5-----------------|-------------------|-------------------|
--------------------|-------------------|-------------------|


  W                  
-------------------||
-------------------||
-------------------||
-------------------||
-------------------||
-------------------||


____________________________________________________________________
********************************************************************
____________________________________________________________________




                                                  


                                                              
Lead Guitar



D||-------|-------|-------|-------|-------|-------|-------|-------|-------|
A||-------|-------|-------|-------|-------|-------|-------|-------|-------|
F||-------|-------|-------|-------|-------|-------|-------|-------|-------|
C||-------|-------|-------|-------|-------|-------|-------|-------|-------|
G||-------|-------|-------|-------|-------|-------|-------|-------|-------|
D||-------|-------|-------|-------|-------|-------|-------|-------|-------|


-------|-------|-------|-------|-------|-------|-------|-------|-------|-------|
-------|-------|-------|-------|-------|-------|-------|-------|-------|-------|
-------|-------|-------|-------|-------|-------|-------|-------|-------|-------|
-------|-------|-------|-------|-------|-------|-------|-------|-------|-------|
-------|-------|-------|-------|-------|-------|-------|-------|-------|-------|
-------|-------|-------|-------|-------|-------|-------|-------|-------|-------|


-------|-------|-------|-------|-------|-------|-------|-------|-------|-------|
-------|-------|-------|-------|-------|-------|-------|-------|-------|-------|
-------|-------|-------|-------|-------|-------|-------|-------|-------|-------|
-------|-------|-------|-------|-------|-------|-------|-------|-------|-------|
-------|-------|-------|-------|-------|-------|-------|-------|-------|-------|
-------|-------|-------|-------|-------|-------|-------|-------|-------|-------|


-------|-------|-------|-------|-------|-------|-------|-------|-------|-------|
-------|-------|-------|-------|-------|-------|-------|-------|-------|-------|
-------|-------|-------|-------|-------|-------|-------|-------|-------|-------|
-------|-------|-------|-------|-------|-------|-------|-------|-------|-------|
-------|-------|-------|-------|-------|-------|-------|-------|-------|-------|
-------|-------|-------|-------|-------|-------|-------|-------|-------|-------|


-------|-------|-------|-------|-------|-------|-------|-------|-------|-------|
-------|-------|-------|-------|-------|-------|-------|-------|-------|-------|
-------|-------|-------|-------|-------|-------|-------|-------|-------|-------|
-------|-------|-------|-------|-------|-------|-------|-------|-------|-------|
-------|-------|-------|-------|-------|-------|-------|-------|-------|-------|
-------|-------|-------|-------|-------|-------|-------|-------|-------|-------|


-------|-------|-------|-------|-------|-------|-------|-------|-------|
-------|-------|-------|-------|-------|-------|-------|-------|-------|
-------|-------|-------|-------|-------|-------|-------|-------|-------|
-------|-------|-------|-------|-------|-------|-------|-------|-------|
-------|-------|-------|-------|-------|-------|-------|-------|-------|
-------|-------|-------|-------|-------|-------|-------|-------|-------|


  H         E   E   E   E     E   E   E   E   E   E   E   E   
---------------------------|---------------------------------|
-------------------12--13--|--L------13--12--13------13--12--|
---------------12----------|-----10--------------10----------|
-----------12--------------|---------------------------------|
---------------------------|---------------------------------|
---------------------------|---------------------------------|


   E   E   E   E   E   E   E   E     E   E   E   E   E   E   E   E   
----------------------------------|---------------------------------|
--13------15------13------12--13--|--L------13--12--13------13--12--|
------10--------------------------|-----10--------------10----------|
--------------10------10----------|---------------------------------|
----------------------------------|---------------------------------|
----------------------------------|---------------------------------|


   E   E   E   E  E   E   E  E     W                   W                 
--------------------------------|-------------------|-------------------|
--13------15--------------------|-------------------|-------------------|
------10----------7--10--10--9--|--L----------------|--L----------------|
--------------10----------------|-------------------|-------------------|
--------------------------------|-------------------|-------------------|
--------------------------------|-------------------|-------------------|


  W                   H         E   E   E   E   
-------------------|---------------------------|
-------------------|-------------------12--13--|
-------------------|---------------12----------|
-------------------|-----------12--------------|
-------------------|---------------------------|
-------------------|---------------------------|


  E   E   E   E   E   E   E   E      E   E   E   E   E   E   E   E   
---------------------------------|----------------------------------|
--L------13--12--13------13--12--|--13------15------13------12--13--|
-----10--------------10----------|------10--------------------------|
---------------------------------|--------------10------10----------|
---------------------------------|----------------------------------|
---------------------------------|----------------------------------|


  E   E   E   E   E   E   E   E      E   E   E   E  E   E   E  E   
---------------------------------|--------------------------------|
--L------13--12--13------13--12--|--13------15--------------------|
-----10--------------10----------|------10----------7--10--10--9--|
---------------------------------|--------------10----------------|
---------------------------------|--------------------------------|
---------------------------------|--------------------------------|


  W                   W                   W                   W                 
-------------------|-------------------|-------------------|-------------------|
-------------------|-------------------|-------------------|-------------------|
--L----------------|--L----------------|-------------------|-------------------|
-------------------|-------------------|-------------------|-------------------|
-------------------|-------------------|-------------------|-------------------|
-------------------|-------------------|-------------------|-------------------|


-------|-------|-------|-------|-------|-------|-------|-------|-------|-------|
-------|-------|-------|-------|-------|-------|-------|-------|-------|-------|
-------|-------|-------|-------|-------|-------|-------|-------|-------|-------|
-------|-------|-------|-------|-------|-------|-------|-------|-------|-------|
-------|-------|-------|-------|-------|-------|-------|-------|-------|-------|
-------|-------|-------|-------|-------|-------|-------|-------|-------|-------|


-------|-------|-------|-------|-------|-------|-------|-------|-------|-------|
-------|-------|-------|-------|-------|-------|-------|-------|-------|-------|
-------|-------|-------|-------|-------|-------|-------|-------|-------|-------|
-------|-------|-------|-------|-------|-------|-------|-------|-------|-------|
-------|-------|-------|-------|-------|-------|-------|-------|-------|-------|
-------|-------|-------|-------|-------|-------|-------|-------|-------|-------|


-------|-------|-------|-------|-------|-------|-------|
-------|-------|-------|-------|-------|-------|-------|
-------|-------|-------|-------|-------|-------|-------|
-------|-------|-------|-------|-------|-------|-------|
-------|-------|-------|-------|-------|-------|-------|
-------|-------|-------|-------|-------|-------|-------|


  H         E   E   E   E     E   E   E   E   E   E   E   E   
---------------------------|---------------------------------|
-------------------12--13--|--L------13--12--13------13--12--|
---------------12----------|-----10--------------10----------|
-----------12--------------|---------------------------------|
---------------------------|---------------------------------|
---------------------------|---------------------------------|


   E   E   E   E   E   E   E   E     E   E   E   E   E   E   E   E   
----------------------------------|---------------------------------|
--13------15------13------12--13--|--L------13--12--13------13--12--|
------10--------------------------|-----10--------------10----------|
--------------10------10----------|---------------------------------|
----------------------------------|---------------------------------|
----------------------------------|---------------------------------|


   E   E   E   E  E   E   E  E     W                   W                 
--------------------------------|-------------------|-------------------|
--13------15--------------------|-------------------|-------------------|
------10----------7--10--10--9--|--L----------------|--L----------------|
--------------10----------------|-------------------|-------------------|
--------------------------------|-------------------|-------------------|
--------------------------------|-------------------|-------------------|


  W                   H         E   E   E   E   
-------------------|---------------------------|
-------------------|-------------------12--13--|
-------------------|---------------12----------|
-------------------|-----------12--------------|
-------------------|---------------------------|
-------------------|---------------------------|


  E   E   E   E   E   E   E   E      E   E   E   E   E   E   E   E   
---------------------------------|----------------------------------|
--L------13--12--13------13--12--|--13------15------13------12--13--|
-----10--------------10----------|------10--------------------------|
---------------------------------|--------------10------10----------|
---------------------------------|----------------------------------|
---------------------------------|----------------------------------|


  E   E   E   E   E   E   E   E      E   E   E   E  E   E   E  E   
---------------------------------|--------------------------------|
--L------13--12--13------13--12--|--13------15--------------------|
-----10--------------10----------|------10----------7--10--10--9--|
---------------------------------|--------------10----------------|
---------------------------------|--------------------------------|
---------------------------------|--------------------------------|


  W                   W                   W                   W                 
-------------------|-------------------|-------------------|-------------------|
-------------------|-------------------|-------------------|-------------------|
--L----------------|--L----------------|-------------------|-------------------|
-------------------|-------------------|-------------------|-------------------|
-------------------|-------------------|-------------------|-------------------|
-------------------|-------------------|-------------------|-------------------|


-------------------|-------------------|-------------------|-------------------|
-------------------|-------------------|-------------------|-------------------|
-------------------|-------------------|-------------------|-------------------|
-------------------|-------------------|-------------------|-------------------|
-------------------|-------------------|-------------------|-------------------|
-------------------|-------------------|-------------------|-------------------|


-------------------|-------------------|-------------------|-------------------|
-------------------|-------------------|-------------------|-------------------|
-------------------|-------------------|-------------------|-------------------|
-------------------|-------------------|-------------------|-------------------|
-------------------|-------------------|-------------------|-------------------|
-------------------|-------------------|-------------------|-------------------|


-------------------|-------------------|-------------------|-------------------|
-------------------|-------------------|-------------------|-------------------|
-------------------|-------------------|-------------------|-------------------|
-------------------|-------------------|-------------------|-------------------|
-------------------|-------------------|-------------------|-------------------|
-------------------|-------------------|-------------------|-------------------|


-------------------|-------------------|-------------------|-------------------|
-------------------|-------------------|-------------------|-------------------|
-------------------|-------------------|-------------------|-------------------|
-------------------|-------------------|-------------------|-------------------|
-------------------|-------------------|-------------------|-------------------|
-------------------|-------------------|-------------------|-------------------|


-------------------|-------------------|-------------------|-------------------|
-------------------|-------------------|-------------------|-------------------|
-------------------|-------------------|-------------------|-------------------|
-------------------|-------------------|-------------------|-------------------|
-------------------|-------------------|-------------------|-------------------|
-------------------|-------------------|-------------------|-------------------|


-------------------|-------------------|-------------------|-------------------|
-------------------|-------------------|-------------------|-------------------|
-------------------|-------------------|-------------------|-------------------|
-------------------|-------------------|-------------------|-------------------|
-------------------|-------------------|-------------------|-------------------|
-------------------|-------------------|-------------------|-------------------|


-------------------|-------------------|-------------------|-------------------|
-------------------|-------------------|-------------------|-------------------|
-------------------|-------------------|-------------------|-------------------|
-------------------|-------------------|-------------------|-------------------|
-------------------|-------------------|-------------------|-------------------|
-------------------|-------------------|-------------------|-------------------|


-------------------|-------------------|-------------------|-------------------|
-------------------|-------------------|-------------------|-------------------|
-------------------|-------------------|-------------------|-------------------|
-------------------|-------------------|-------------------|-------------------|
-------------------|-------------------|-------------------|-------------------|
-------------------|-------------------|-------------------|-------------------|


-------------------|-------------------|-------------------|-------------------|
-------------------|-------------------|-------------------|-------------------|
-------------------|-------------------|-------------------|-------------------|
-------------------|-------------------|-------------------|-------------------|
-------------------|-------------------|-------------------|-------------------|
-------------------|-------------------|-------------------|-------------------|


-------------------|-------------------|-------------------|-------------------|
-------------------|-------------------|-------------------|-------------------|
-------------------|-------------------|-------------------|-------------------|
-------------------|-------------------|-------------------|-------------------|
-------------------|-------------------|-------------------|-------------------|
-------------------|-------------------|-------------------|-------------------|


   |---3---|   |----3---|   |---3---|   |----3---|   
   E   E   E   E   E    E   E   E   E   E   E    E   
--------------16-----------------------16-----------|
----------16------19p--16----------16------19p--16--|
--18b--L-------------------18b--L-------------------|
----------------------------------------------------|
----------------------------------------------------|
----------------------------------------------------|


   |---3---|   |----3---|   |---3---|   |----3---|   
   E   E   E   E   E    E   E   E   E   E   E    E   
--------------16-----------------------16-----------|
----------16------19p--16----------16------19p--16--|
--18b--L-------------------18b--L-------------------|
----------------------------------------------------|
----------------------------------------------------|
----------------------------------------------------|


   |---3---|   |---3---|   |---3---|   |---3---|   
   E   E   E   E   E   E   E   E   E   E   E   E   
--18--19--16--18------16--------------------------|
------------------19------18--19--16--18------16--|
------------------------------------------19------|
--------------------------------------------------|
--------------------------------------------------|
--------------------------------------------------|


   |---3---|   |---3---|   |---3---|   |---3---|   
   E   E   E   E   E   E   E   E   E   E   E   E   
--------------------------------------------------|
--------------------------------------------------|
--18--19--18--16----------18--16----------19--16--|
------------------18--16----------18--16----------|
--------------------------------------------------|
--------------------------------------------------|


   |---3---|   |---3---|   |---3---|   |---3---|   
   E   E   E   E   E   E   E   E   E   E   E   E   
------------------------------------------19--16--|
----------18--16----------19--16------------------|
------------------18--16----------18--16----------|
--18--16------------------------------------------|
--------------------------------------------------|
--------------------------------------------------|


   |---3---|   |---3---|   |---3---|   |---3---|   
   E   E   E   E   E   E   E   E   E   E   E   E   
----------21--16----------19--16--19--16----------|
--19--16----------19--16------------------19--16--|
--------------------------------------------------|
--------------------------------------------------|
--------------------------------------------------|
--------------------------------------------------|


   \1/                                                 
             |-----3-----|                             
   H         Q     Q     Q        W                    
------------------16----18----|--18pbr----------------|
--18--------18----------------|-----------------------|
------------------------------|-----------------------|
------------------------------|-----------------------|
------------------------------|-----------------------|
------------------------------|-----------------------|


      PM  PM        W        PM     PM                              
  E   E   E   E     Q    E   E      E   E   E   E   E   E   E   E   
--------------------------------|----------------------------------|
--------------------------------|--------------12--11--------------|
--x----------11--<>13----L------|------11--13----------13--11--13--|
--x--11--13-----------------11--|--13------------------------------|
--------------------------------|----------------------------------|
--------------------------------|----------------------------------|


  E  S   S  E   E   H             S   S  E   E   E    E   E   E   E    
---------------14--16\--------|-------------16--18br--L--16------16\--|
-----9s-14-16-----------------|--14s-16-19-------------------19-------|
--x---------------------------|---------------------------------------|
--x---------------------------|---------------------------------------|
------------------------------|---------------------------------------|
------------------------------|---------------------------------------|


  E   E   E   E   E   E   E   E      E   E   E   E   E   E   E   E   
--L------18------19--16----------|--16------------------------------|
-----16------16------------------|--------------16------------------|
-------------------------19--18--|------19--18------19--16----------|
---------------------------------|--------------------------18--16--|
---------------------------------|----------------------------------|
---------------------------------|----------------------------------|


   S  S  S  S  S   S   S  S  S  S  S   S  S   S   S  S  
--------------16h-20p-16----------16h-20-23p-20p-16----|
-----------18------------18----18-------------------17-|
--------17------------------17-------------------------|
-----18------------------------------------------------|
--20---------------------------------------------------|
-------------------------------------------------------|


                                \1/                                       
   |----3----|    |----3----|                                             
   E    E    E    E    E    E   H            E   E   E   E  Q     E   E   
--24b--20p--16h--20p--16s--13------------|-------------------------------|
-----------------------------------------|--18------17-----------18------|
-------------------------------16--------|------19------17-----------19--|
-----------------------------------------|-------------------------------|
-----------------------------------------|-------------------------------|
-----------------------------------------|-------------------------------|


   E   E   E   E   E   E   E   E      E   E   E   E  Q     E   E   
----------------------------------|-------------------------------|
--------------17------18----------|--18------17-----------18------|
--17------17------15------17--19--|------19------17-----------19--|
------17--------------------------|-------------------------------|
----------------------------------|-------------------------------|
----------------------------------|-------------------------------|


   E   E   E   E   E   E   E   E      E   E   E   E  Q     E   E   
------------------20----------20--|-------------------------------|
----------17--18------17--18------|--18------17-----------18------|
--17--19--------------------------|------19------17-----------19--|
----------------------------------|-------------------------------|
----------------------------------|-------------------------------|
----------------------------------|-------------------------------|


   E   E   E   E   E   E   E   E      E   E   E   E  Q     E   E   
----------------------------------|-------------------------------|
--------------17------------------|--15------14-----------15------|
--17------17------15------19--17--|------16------14-----------16--|
------17--------------15----------|-------------------------------|
----------------------------------|-------------------------------|
----------------------------------|-------------------------------|


   E   E   E   E   E   E   E   E      E   E   E   E  Q     E   E   
------------------------------17--|-------------------------------|
--------------15--18------15------|--18------17-----------18------|
--15------17----------17----------|------19------17-----------19--|
------15--------------------------|-------------------------------|
----------------------------------|-------------------------------|
----------------------------------|-------------------------------|


   E   E   E   E   E   E   E   E      E   E   E   E  Q     E   E   
----------------------------------|-------------------------------|
--------------17------------------|--18------17-----------18------|
--17------17------15------17--19--|------19------17-----------19--|
------17--------------15----------|-------------------------------|
----------------------------------|-------------------------------|
----------------------------------|-------------------------------|


   E   E   E   E   E   E   E   E      E   E   E   E  Q     E   E   
------------------20----------20--|-------------------------------|
----------17--18------17--18------|--18------17-----------18------|
--17--19--------------------------|------19------17-----------19--|
----------------------------------|-------------------------------|
----------------------------------|-------------------------------|
----------------------------------|-------------------------------|


   E   E   E   E   E   E   E   E      E   E   E   E  Q     E   E   
----------------------------------|-------------------------------|
--------------17------------------|--15------14-----------15------|
--17------17------15------19--17--|------16------14-----------16--|
------17--------------15----------|-------------------------------|
----------------------------------|-------------------------------|
----------------------------------|-------------------------------|


   E   E   E   E   E   E   E   E      E   E   E   E  H         
------------------------------17--|---------------------------|
--------------15--18------15------|--18------17---------------|
--15------17----------17----------|------19------17-----------|
------15--------------------------|---------------------------|
----------------------------------|---------------------------|
----------------------------------|---------------------------|


                               PM  PM          PM  PM          
   E   E   E   E  H            E   E   E   E   E   E   E   E   
---------------------------|----------------------------------|
---------------------------|----------------------------------|
----------21--22-----------|----------21--22----------21--22--|
--19--22-------------------|--19--22----------19--22----------|
---------------------------|----------------------------------|
---------------------------|----------------------------------|


   H         E  E  Q      
------------------------||
------------------------||
--19\--------L----------||
------------------------||
------------------------||
------------------------||




Duration Legend
---------------
W - whole
H - half
Q - quarter
E - 8th
S - 16th
T - 32nd
X - 64th
. - note dotted
|-n-|  - n-tuplets


Tablature Legend
----------------
L - tied note
x - dead note
g - grace note
(n) - ghost note
> - accentuded note
NH - natural harmonic
AH - artificial harmonic
TH - tapped harmonic
SH - semi harmonic
PH - pitch harmonic
h - hammer on
p - pull off
b - bend
br - bendRelease
pb - preBend
pbr - preBendRelease
brb - bendReleaseBend
\n/ - tremolo bar dip
\n - tremolo bar dive
-/n - tremolo bar Release up
/n\ - tremolo bar inverted dip
/n - tremolo bar return
-\n - tremolo bar Release down
S - shift slide
s - legato slide
/ -  slide into from below or out of upwards
\ -  slide into from above or out of downwards
~ - vibrato
W - wide vibrato
tr - trill
TP - tremolo picking
T - tapping
S - slap
P - pop
< - fade in
^ - brush up
v - brush down


transcribed by *Mitch DuCran*


Tap to rate this tab
# A B C D E F G H I J K L M N O P Q R S T U V W X Y Z