Song name
# A B C D E F G H I J K L M N O P Q R S T U V W X Y Z

Children Of Bodom - Lobodomy tab

ok so this is just me copy and pasting out of the guitar pro file for those of you
it but dont have GP (i am submitting this from the requests page so whoever requested 
it
standard... but comeon everyone knows COB isnt in standard haha)... i will put down the 
SONG down each time for each new guitar part   key will be placed at very end if you
its a sloppy way to have it placed then... shut up cause i dont care

this was tabbed by http://profile.ultimate-guitar.com/SpencerOjala/     and not me

Gtr I

                                       PM PM
     W                   H        Q    E  E     W
D||-------------------|----------------------|-------------------|
A||-------------------|----------------------|-------------------|
F||-------------------|----------------------|--7----------------|
C||-------------------|----------------x--x--|--7----------------|
G||-------------------|----------------0--0--|--5----------------|
C||-------------------|----------------0--0--|-------------------|


       PM PM      PM PM                  PM PM                  PM PM
  Q    E  E  Q    E  E     H        Q    E  E     H        Q    E  E
------------------------|----------------------|----------------------|
------------------------|----------------------|----------------------|
--L---------------------|--7--------L----------|----------------------|
--L----------6----x--x--|--7--------L----x--x--|--3--------L----x--x--|
--L----0--0--6----0--0--|--5--------L----3--3--|--3--------L----0--0--|
-------0--0--6----0--0--|----------------3--3--|--3--------L----0--0--|


                              PM PM         PM PM                  PM PM
  W                    E   E  E  E  E    E  E  E     H        Q    E  E
-------------------|------------------------------|----------------------|
-------------------|------------------------------|----------------------|
--7----------------|------------------------------|--7--------L----------|
--7----------------|--10p--7--------9h--12--------|--7--------L----x--x--|
--5----------------|----------0--0----------0--0--|--5--------L----3--3--|
-------------------|----------0--0----------0--0--|----------------3--3--|


                        PM PM                             PM PM      PM PM
  E   E   E   E  E   E  E  E     W                   Q    E  E  Q    E  E
------------------------------|-------------------|------------------------|
------------------------------|-------------------|------------------------|
------------------------------|--7----------------|--L---------------------|
--3h--5p--3p--2--3p--2--x--x--|--7----------------|--L----------6----x--x--|
------------------------0--0--|--5----------------|--L----0--0--6----0--0--|
------------------------0--0--|-------------------|-------0--0--6----0--0--|


                PM PM                  PM PM
  H        Q    E  E     H        Q    E  E     W
----------------------|----------------------|-------------------|
----------------------|----------------------|-------------------|
--7--------L----------|----------------------|--7----------------|
--7--------L----x--x--|--3--------L----x--x--|--7----------------|
--5--------L----3--3--|--3--------L----0--0--|--5----------------|
----------------3--3--|--3--------L----0--0--|-------------------|


          PM PM         PM PM
   E   E  E  E  E    E  E  E     Q    Q     Q    Q
------------------------------|-----------------------|
------------------------------|-----------------------|
------------------------------|--7--------------------|
--10p--7--------9h--12--------|--7--------------------|
----------0--0----------0--0--|--5---------------3----|
----------0--0----------0--0--|-------7\----L----3----|


  E   E   E   E  E   E  Q    Q       H         E  E  Q
----------------------------------|-----------------------|-----|-----|-----|
----------------------------------|-----------------------|-----|-----|-----|
------------------------7---------|--9\--------L----------|-----|-----|-----|
--3h--5p--3p--2--3p--2--7----3----|--9\--------L----------|-----|-----|-----|
------------------------5----3----|--7\--------L----------|-----|-----|-----|
-----------------------------3----|-----------------------|-----|-----|-----|


                                            PM PM PM    PM    PM PM PM PM
                    E   E  E  E   E   E     S  S  E  E  E  E  E  S  S  E
-----|-----|-----|-----------------------|--------------------------------|
-----|-----|-----|-----------------------|--------------------------------|
-----|-----|-----|------------8------11--|--------------------------------|
-----|-----|-----|--9--10--7-----10------|-----------2-----2--------------|
-----|-----|-----|-----------------------|-----------2-----2--------------|
-----|-----|-----|-----------------------|--2--2--2-----2-----2--2--2--2--|


     PM              PM PM PM       PM    PM PM PM PM PM PM PM
  E  E  E   E  E  E  S  S  E     E  E  E  E  S  S  E  S  S  E
------------------------------|--------------------------------|
------------------------------|--------------------------------|
------------------------------|--------------------------------|
------------------6-----------|--2-----------------------------|
--8--5--7h--8--5--------------|--2-----8--5--------------------|
---------------------2--2--2--|-----2--------2--2--2--2--2--2--|


     PM                       PM PM PM    PM    PM PM PM PM
  E  E  E   E  E  E  E  E     S  S  E  E  E  E  E  S  S  E
---------------------------|--------------------------------|
---------------------------|--------------------------------|
---------------------------|--------------------------------|
------------------6-----9--|-----------2-----2--------------|
--8--5--7h--8--5-----8-----|-----------2-----2--------------|
---------------------------|--2--2--2-----2-----2--2--2--2--|


     PM              PM PM PM       PM       PM PM PM    PM
  E  E  E   E  E  E  S  S  E     E  E  E  E  S  S  E  E  E
------------------------------|-----------------------------|
------------------------------|-----------------------------|
------------------------------|-----------------------------|
------------------6-----------|--5-----5--------------5-----|
--8--5--7h--8--5--------------|--5-----5--------------------|
---------------------2--2--2--|-----5-----5--5--5--5-----5--|


                       PM PM PM    PM    PM PM PM PM
  E  E  E  E  E  E     S  S  E  E  E  E  E  S  S  E
--------------------|--------------------------------|
--------------------|--------------------------------|
--------------------|--------------------------------|
-----------6-----9--|-----------2-----2--------------|
--7--8--5-----8-----|-----------2-----2--------------|
--------------------|--2--2--2-----2-----2--2--2--2--|


     PM              PM PM PM       PM    PM PM PM PM PM PM PM
  E  E  E   E  E  E  S  S  E     E  E  E  E  S  S  E  S  S  E
------------------------------|--------------------------------|
------------------------------|--------------------------------|
------------------------------|--------------------------------|
------------------6-----------|--2-----2-----------------------|
--8--5--7h--8--5--------------|--2-----2-----------------------|
---------------------2--2--2--|-----2-----2--2--2--2--2--2--2--|


     PM                       PM PM PM    PM    PM PM PM PM
  E  E  E   E  E  E  E  E     S  S  E  E  E  E  E  S  S  E
---------------------------|--------------------------------|
---------------------------|--------------------------------|
---------------------------|--------------------------------|
------------------6-----9--|-----------2-----2--------------|
--8--5--7h--8--5-----8-----|-----------2-----2--------------|
---------------------------|--2--2--2-----2-----2--2--2--2--|


     PM              PM PM PM       PM       PM PM PM    PM
  E  E  E   E  E  E  S  S  E     E  E  E  E  S  S  E  E  E
------------------------------|-----------------------------|
------------------------------|-----------------------------|
------------------------------|-----------------------------|
------------------6-----------|--5-----5--------------5-----|
--8--5--7h--8--5--------------|--5-----5--------------------|
---------------------2--2--2--|-----5-----5--5--5--5-----5--|


                              PM PM                    PM PM
  E  E  E  E  E  E  E   E     E  E  Q    Q    E  E     E  E  E  E  Q    Q
---------------------------|------------------------|------------------------|
---------------------------|------------------------|--------------5----L----|
-----------4-----7-----10--|--------6----6-------5--|--------6--L-------5----|
--5--6--3-----6-----9------|--------6----6----------|--------6--L------------|
---------------------------|--4--4------------0--L--|--4--4-----4------------|
---------------------------|------------------------|------------------------|


  PM PM                    PM PM                     PM PM
  E  E  Q    Q    E  E     E  E  E  E  E  E  Q       E  E  Q    Q    E  E
------------------------|-------------------------|------------------------|
------------------------|-----------5--4----------|------------------------|
--------6----6-------5--|--------6--------4-------|--------6----6-------5--|
--------6----6----------|--------------------6----|--------6----6----------|
--4--4------------0--L--|--4--4-------------------|--4--4------------0--L--|
------------------------|-------------------------|------------------------|


  PM PM                    PM PM                    PM PM
  E  E  E  E  Q    Q       E  E  Q    Q    E  E     E  E  E  E  E  E  Q
------------------------|------------------------|-------------------------|
--------------5----L----|------------------------|-----------5--4----------|
--------6--L-------5----|--------6----6-------5--|--------6--------4-------|
--------6--L------------|--------6----6----------|--------------------6----|
--4--4-----4------------|--4--4------------0--L--|--4--4-------------------|
------------------------|------------------------|-------------------------|


  PM PM                    PM PM                    PM PM
  E  E  Q    Q    E  E     E  E  E  E  Q    Q       E  E  Q    Q    E  E
------------------------|------------------------|------------------------|
------------------------|--------------5----L----|------------------------|
--------6----6-------5--|--------6--L-------5----|--------6----6-------5--|
--------6----6----------|--------6--L------------|--------6----6----------|
--4--4------------0--L--|--4--4-----4------------|--4--4------------0--L--|
------------------------|------------------------|------------------------|


  PM PM                     PM PM                    PM PM
  E  E  E  E  E  E  Q       E  E  Q    Q    E  E     E  E  E  E  Q    Q
-------------------------|------------------------|------------------------|
-----------5--4----------|------------------------|--------------5----L----|
--------6--------4-------|--------6----6-------5--|--------6--L-------5----|
--------------------6----|--------6----6----------|--------6--L------------|
--4--4-------------------|--4--4------------0--L--|--4--4-----4------------|
-------------------------|------------------------|------------------------|


  PM PM                    PM PM
  E  E  Q    Q    E  E     E  E  E  E  E  E  Q
------------------------|-------------------------|
------------------------|-----------5--4----------|
--------6----6-------5--|--------6--------4-------|
--------6----6----------|--------------------6----|
--4--4------------0--L--|--4--4-------------------|
------------------------|-------------------------|


  PM PM PM    PM    PM PM PM PM       PM              PM PM PM
  S  S  E  E  E  E  E  S  S  E     E  E  E   E  E  E  S  S  E
--------------------------------|------------------------------|
--------------------------------|------------------------------|
--------------------------------|------------------------------|
-----------2-----2--------------|------------------6-----------|
-----------2-----2--------------|--8--5--7h--8--5--------------|
--2--2--2-----2-----2--2--2--2--|---------------------2--2--2--|


     PM    PM PM PM PM PM PM PM       PM
  E  E  E  E  S  S  E  S  S  E     E  E  E   E  E  E  E  E
--------------------------------|---------------------------|
--------------------------------|---------------------------|
--------------------------------|---------------------------|
--2-----2-----------------------|------------------6-----9--|
--2-----2-----------------------|--8--5--7h--8--5-----8-----|
-----2-----2--2--2--2--2--2--2--|---------------------------|


  PM PM PM    PM    PM PM PM PM       PM              PM PM PM
  S  S  E  E  E  E  E  S  S  E     E  E  E   E  E  E  S  S  E
--------------------------------|------------------------------|
--------------------------------|------------------------------|
--------------------------------|------------------------------|
-----------2-----2--------------|------------------6-----------|
-----------2-----2--------------|--8--5--7h--8--5--------------|
--2--2--2-----2-----2--2--2--2--|---------------------2--2--2--|


     PM    PM PM PM PM    PM
  E  E  E  E  S  S  E  E  E     E  E  E  E  E  E
-----------------------------|--------------------|
-----------------------------|--------------------|
-----------------------------|--------------------|
--5-----5--------------5-----|-----------6-----9--|
--5-----5--------------------|--7--8--5-----8-----|
-----5-----5--5--5--5-----5--|--------------------|


  PM PM PM    PM    PM PM PM PM       PM              PM PM PM
  S  S  E  E  E  E  E  S  S  E     E  E  E   E  E  E  S  S  E
--------------------------------|------------------------------|
--------------------------------|------------------------------|
--------------------------------|------------------------------|
-----------2-----2--------------|------------------6-----------|
-----------2-----2--------------|--8--5--7h--8--5--------------|
--2--2--2-----2-----2--2--2--2--|---------------------2--2--2--|


     PM    PM PM PM PM PM PM PM       PM
  E  E  E  E  S  S  E  S  S  E     E  E  E   E  E  E  E  E
--------------------------------|---------------------------|
--------------------------------|---------------------------|
--------------------------------|---------------------------|
--2-----2-----------------------|------------------6-----9--|
--2-----2-----------------------|--8--5--7h--8--5-----8-----|
-----2-----2--2--2--2--2--2--2--|---------------------------|


  PM PM PM    PM    PM PM PM PM       PM              PM PM PM
  S  S  E  E  E  E  E  S  S  E     E  E  E   E  E  E  S  S  E
--------------------------------|------------------------------|
--------------------------------|------------------------------|
--------------------------------|------------------------------|
-----------2-----2--------------|------------------6-----------|
-----------2-----2--------------|--8--5--7h--8--5--------------|
--2--2--2-----2-----2--2--2--2--|---------------------2--2--2--|


     PM    PM PM PM PM    PM
  E  E  E  E  S  S  E  E  E     E   E  E  E   E   E   E   E
-----------------------------|-------------------------------|
-----------------------------|-------------------------------|
-----------------------------|------------8------11------14--|
--5-----5--------------5-----|--9--10--7-----10------13------|
--------5--------------------|-------------------------------|
-----2-----5--5--5--5-----5--|-------------------------------|


         PM    PM PM PM PM
  E   E  E  E  E  E  E  E       Q      E   E  E   E  E  E
---------------------------|-------------------------------|
---------------------------|-------------------------------|
---------------------------|-------------------------------|
---------------------------|-------------------------------|
--3p--2--x--2--------------|--<>4br------------------2-----|
--3p--2--2--2--2--2--3--5--|-----------2h--3--5p--0-----3--|


         PM    PM PM PM PM           PM PM PM PM   W
  E   E  E  E  E  E  E  E     E   E  E  E  E  E    Q
---------------------------|----------------------------|
---------------------------|----------------------------|
---------------------------|----------------------------|
---------------------------|---------------2--4--<>5----|
--3p--2--x--2--------------|--6s--5--3--5---------------|
--3p--2--2--2--2--2--3--5--|--6s--5---------------------|


         PM    PM PM PM PM
  E   E  E  E  E  E  E  E       Q      E   E  E   E  E  E     W
---------------------------|-------------------------------|-------------------|
---------------------------|-------------------------------|-------------------|
---------------------------|-------------------------------|-------------------|
---------------------------|-------------------------------|-------------------|
--3p--2--x--2--------------|--<>4br------------------2--3--|--5----------------|
--3p--2--2--2--2--2--3--5--|-----------2h--3--5p--0--------|--5----------------|


                             PM    PM PM PM PM
  W                   E   E  E  E  E  E  E  E       Q      E   E  E   E  E  E
-------------------|---------------------------|-------------------------------|
-------------------|---------------------------|-------------------------------|
-------------------|---------------------------|-------------------------------|
--4----------------|---------------------------|-------------------------------|
--2----------------|--3p--2--x--2--------------|--<>4br------------------2-----|
-------------------|--3p--2--2--2--2--2--3--5--|-----------2h--3--5p--0-----3--|


         PM    PM PM PM PM           PM PM PM PM   W
  E   E  E  E  E  E  E  E     E   E  E  E  E  E    Q
---------------------------|----------------------------|
---------------------------|----------------------------|
---------------------------|----------------------------|
---------------------------|---------------2--4--<>5----|
--3p--2--x--2--------------|--6s--5--3--5---------------|
--3p--2--2--2--2--2--3--5--|--6s--5---------------------|


         PM    PM PM PM PM
  E   E  E  E  E  E  E  E       Q      E   E  E   E  E  E     W
---------------------------|-------------------------------|-------------------|
---------------------------|-------------------------------|-------------------|
---------------------------|-------------------------------|-------------------|
---------------------------|-------------------------------|-------------------|
--3p--2--x--2--------------|--<>4br------------------2--3--|--5----------------|
--3p--2--2--2--2--2--3--5--|-----------2h--3--5p--0--------|--5----------------|


  W                   W                   W
-------------------|-------------------|-------------------|
-------------------|-------------------|-------------------|
-------------------|-------------------|-------------------|
--4----------------|--5----------------|--7----------------|
--2----------------|--3----------------|--5----------------|
-------------------|-------------------|-------------------|


  PM PM                           PM PM         PM PM PM PM
  E  E  Q    H           H        E  E  Q       S  S  S  S  Q    H
----------------------|----------------------|----------------------------|
----------------------|----------------------|----------------------------|
----------------------|----------------------|----------------------------|
--------7----L--------|--L--------------6----|--------------7----L--------|
--0--0--5----L--------|--L--------0--0--6----|--------------5----L--------|
--0--0--0-------------|--L--------0--0--6----|--0--0--0--0--0----L--------|


  PM PM                                           PM PM         PM PM
  E  E  Q    H           S S S S Q    H           E  E   E   E  E  E  E    E
----------------------|------------------------|------------------------------|
----------------------|------------------------|------------------------------|
----------------------|------------------------|------------------------------|
--------3----L--------|----------7----L--------|--------10p--7--------9h--12--|
--------3----L--------|----------5----L--------|--0--0----------0--0----------|
--3--3--3----L--------|--0-0-0-0-0----L--------|--0--0----------0--0----------|


  PM PM                                             PM PM
  E  E  Q    H           E  E  E  E  E  E  E  E     E  E  Q    H
----------------------|--------------------------|----------------------|
----------------------|--------------------------|----------------------|
----------------------|--------------------------|----------------------|
--------7----L--------|--------3--5--3--------2--|--------7----L--------|
--0--0--5----L--------|-----3--------------3-----|--0--0--5----L--------|
--0--0--0-------------|--3--------------3--------|--0--0--0-------------|


           PM PM         PM PM PM PM                  PM PM
  H        E  E  Q       S  S  S  S  Q    H           E  E  Q    H
----------------------|----------------------------|----------------------|
----------------------|----------------------------|----------------------|
----------------------|----------------------------|----------------------|
--L--------------6----|--------------7----L--------|--------3----L--------|
--L--------0--0--6----|--------------5----L--------|--------3----L--------|
--L--------0--0--6----|--0--0--0--0--0----L--------|--3--3--3----L--------|


                           PM PM         PM PM            PM PM
  S S S S Q    H           E  E   E   E  E  E  E    E     E  E  Q    H
------------------------|------------------------------|----------------------|
------------------------|------------------------------|----------------------|
------------------------|------------------------------|----------------------|
----------7----L--------|--------10p--7--------9h--12--|--------7----L--------|
----------5----L--------|--0--0----------0--0----------|--0--0--5----L--------|
--0-0-0-0-0----L--------|--0--0----------0--0----------|--0--0--0-------------|


  E  E  E  E  E  E  E  E     E  E  E  E  E  E  E  E
--------------------------|--------------------------|
--------------------------|--------------------------|
--------------------------|--------------------------|
--------3--5--3--------3--|--9--9--9--7--L--7--7--5--|
-----3-----------3--------|--7--7--7--5--L--5--5--3--|
--3-----------------3-----|--------------------------|


  E  E  E  E  E  E  E  E     E  E  E  E  E  E  E  E     E  E  E  E  H
--------------------------|--------------------------|-----------------------|
--------------------------|--------------------------|-----------------------|
--------------------------|--------------------------|-----------------------|
--L--5--5--7--L--7--7--7--|--5--5--5--7--L--7--7--9--|--L--9--9--0--L--------|
--L--3--3--5--L--5--5--5--|--3--3--3--5--L--5--5--7--|--L--7--7--0--L--------|
--------------------------|--------------------------|-----------0--L--------|


  E  E  E  E  E  E  E   E     E   E   E  E  E  E  E  E
---------------------------|----------------------------|
---------------------------|----------------------------|
---------------------------|----------------------------|
--9--9--9--7--L--7--7--12--|--L--12--12--7--L--7--7--7--|
--7--7--7--5--L--5--5--10--|--L--10--10--5--L--5--5--5--|
---------------------------|----------------------------|


  E  E  E  E  E  E  E  E     E  E  E   E  E   E   E   E
--------------------------|------------------------------|
--------------------------|------------------------------|
--------------------------|------------------------------|
--5--5--5--7--L--7--7--9--|--L--9--9--10--L--10--10--10--|
--3--3--3--5--L--5--5--7--|--L--7--7---8--L---8---8---8--|
--------------------------|------------------------------|


                                                   W
   E  E   E   E  E   E   E   E       E   E   E     E  E   E  Q
----------------------------------|-------------------------------|
----------------------------------|-------------------------------|
--11--9--11--13--L--11--13--13br--|--L--13--11--<>13--L--11--9----|
----------------------------------|-------------------------------|
----------------------------------|-------------------------------|
----------------------------------|-------------------------------|


                                        PM  PM
   E  E   E   E  E   E   E   E       E  E   E   E   H
----------------------------------|------------12\--L--------|
----------------------------------|-----9--10----------------|
--11--9--11--13--L--11--13--13br--|--L-----------------------|
----------------------------------|--------------------------|
----------------------------------|--------------------------|
----------------------------------|--------------------------|


   \1/                                             W         \1/
   E  E   E   E  E   E   E   E       E   E   E     E  E   E  Q
----------------------------------|-------------------------------|
----------------------------------|-------------------------------|
--11--9--11--13--L--11--13--13br--|--L--13--11--<>13--L--11--9----|
----------------------------------|-------------------------------|
----------------------------------|-------------------------------|
----------------------------------|-------------------------------|


   S  S  S  S  S  S  S  S  S  S  S  S  S  S  S  S
--------------------------------------12-14-16-12-|
--------------------12-14-15-12-14-15-------------|
--11-13-14-11-13-14-------------------------------|
--------------------------------------------------|
--------------------------------------------------|
--------------------------------------------------|


                                                PM PM PM PM PM
   S  S   S  S  S  S  S  S  H            E   E  E  E  E  E  E  E
--14-16S-17-14-16-17-19-17-19b--------|---------------------------|
--------------------------------------|---------------------------|
--------------------------------------|---------------------------|
--------------------------------------|---------------------------|
--------------------------------------|--2h--3--3--3--3--3--3--5--|
--------------------------------------|--2h--3--3--3--3--3--3--5--|


                                PM PM    PM PM             PM
  E  E  Q    H           E   E  E  E  E  E  E  E     E  E  E  E  E  E  E  E
----------------------|---------------------------|--------------------------|
----------------------|---------------------------|--------------------------|
----------------------|---------------------------|--------------------------|
----------------------|------------------------4--|--L--4--4--5--L--5--5--5--|
--x--0--L----L--------|--0h--2--2--2--2--2--2--2--|--L--2--2--3--L--3--3--3--|
--x--0--L----L--------|--0h--2--2--2--2--2--2-----|--------------------------|


         PM PM PM PM PM                                     PM PM    PM PM
  E   E  E  E  E  E  E  E     E  E  Q    H           E   E  E  E  E  E  E  E
---------------------------|----------------------|---------------------------|
---------------------------|----------------------|---------------------------|
---------------------------|----------------------|---------------------------|
---------------------------|----------------------|---------------------------|
--2h--3--3--3--3--3--3--5--|--x--0--L----L--------|--0h--2--2--2--2--2--2--5--|
--2h--3--3--3--3--3--3--5--|--x--0--L----L--------|--0h--2--2--2--2--2--2--5--|


     PM PM                          PM PM PM PM PM
  E  E  E  E  E  E  E  E     E   E  E  E  E  E  E  E     E  E  Q    H
--------------------------|---------------------------|----------------------|
--------------------------|---------------------------|----------------------|
--------------------------|---------------------------|----------------------|
-----------7--L--7--7--7--|---------------------------|----------------------|
--L--5--5--5--L--5--5--5--|--2h--3--3--3--3--3--3--5--|--x--0--L----L--------|
--L--5--5-----------------|--2h--3--3--3--3--3--3--5--|--x--0--L----L--------|


         PM PM    PM PM          PM PM
  E   E  E  E  E  E  E  E     E  E  E  E  E  E  E  E
---------------------------|--------------------------|
---------------------------|--------------------------|
---------------------------|--------------------------|
------------------------4--|--L--4--4--5--L--5--5--5--|
--0h--2--2--2--2--2--2--2--|--L--2--2--3--L--3--3--3--|
--0h--2--2--2--2--2--2-----|--------------------------|


         PM PM PM PM PM                                     PM PM    PM PM
  E   E  E  E  E  E  E  E     E  E  Q    H           E   E  E  E  E  E  E  E
---------------------------|----------------------|---------------------------|
---------------------------|----------------------|---------------------------|
---------------------------|----------------------|---------------------------|
---------------------------|----------------------|---------------------------|
--2h--3--3--3--3--3--3--5--|--x--0--L----L--------|--0h--2--2--2--2--2--2--5--|
--2h--3--3--3--3--3--3--5--|--x--0--L----L--------|--0h--2--2--2--2--2--2--5--|


     PM PM                          PM PM PM PM PM
  E  E  E  E  E  E  E  E     E   E  E  E  E  E  E  E     E  E  Q    H
--------------------------|---------------------------|----------------------|
--------------------------|---------------------------|----------------------|
--------------------------|---------------------------|----------------------|
-----------7--L--7--7--7--|---------------------------|----------------------|
--L--5--5--5--L--5--5--5--|--2h--3--3--3--3--3--3--5--|--x--0--L----L--------|
--L--5--5-----------------|--2h--3--3--3--3--3--3--5--|--x--0--L----L--------|


         PM PM    PM PM          PM PM
  E   E  E  E  E  E  E  E     E  E  E  E  E  E  E  E
---------------------------|--------------------------|
---------------------------|--------------------------|
---------------------------|--------------------------|
------------------------4--|--L--4--4--5--L--5--5--5--|
--0h--2--2--2--2--2--2--2--|--L--2--2--3--L--3--3--3--|
--0h--2--2--2--2--2--2-----|--------------------------|


         PM PM PM PM PM                                     PM PM    PM PM
  E   E  E  E  E  E  E  E     E  E  Q    H           E   E  E  E  E  E  E  E
---------------------------|----------------------|---------------------------|
---------------------------|----------------------|---------------------------|
---------------------------|----------------------|---------------------------|
---------------------------|----------------------|---------------------------|
--2h--3--3--3--3--3--3--5--|--x--0--L----L--------|--0h--2--2--2--2--2--2--5--|
--2h--3--3--3--3--3--3--5--|--x--0--L----L--------|--0h--2--2--2--2--2--2--5--|


     PM PM                          PM PM PM PM PM
  E  E  E  E  E  E  E  E     E   E  E  E  E  E  E  E     E  E  Q    H
--------------------------|---------------------------|----------------------|
--------------------------|---------------------------|----------------------|
--------------------------|---------------------------|----------------------|
-----------7--L--7--7--7--|---------------------------|----------------------|
--L--5--5--5--L--5--5--5--|--2h--3--3--3--3--3--3--5--|--x--0--L----L--------|
--L--5--5-----------------|--2h--3--3--3--3--3--3--5--|--x--0--L----L--------|


         PM PM    PM PM          PM PM
  E   E  E  E  E  E  E  E     E  E  E  E  E  E  E  E
---------------------------|--------------------------|
---------------------------|--------------------------|
---------------------------|--------------------------|
------------------------4--|--L--4--4--5--L--5--5--5--|
--0h--2--2--2--2--2--2--2--|--L--2--2--3--L--3--3--3--|
--0h--2--2--2--2--2--2-----|--------------------------|


         PM PM PM PM PM                                     PM PM    PM PM
  E   E  E  E  E  E  E  E     E  E  Q    H           E   E  E  E  E  E  E  E
---------------------------|----------------------|---------------------------|
---------------------------|----------------------|---------------------------|
---------------------------|----------------------|---------------------------|
---------------------------|----------------------|---------------------------|
--2h--3--3--3--3--3--3--5--|--x--0--L----L--------|--0h--2--2--2--2--2--2--5--|
--2h--3--3--3--3--3--3--5--|--x--0--L----L--------|--0h--2--2--2--2--2--2--5--|


     PM PM                   PM PM                    PM PM
  E  E  E  E  E  E  E  E     E  E  Q    Q    E  E     E  E  E  E  Q    Q
--------------------------|------------------------|------------------------|
--------------------------|------------------------|--------------5----L----|
--------------------------|--------6----6-------5--|--------6--L-------5----|
-----------7--L--7--7--7--|--------6----6----------|--------6--L------------|
--L--5--5--5--L--5--5--5--|--4--4------------0--L--|--4--4-----4------------|
--L--5--5-----------------|------------------------|------------------------|


  PM PM                    PM PM                     PM PM
  E  E  Q    Q    E  E     E  E  E  E  E  E  Q       E  E  Q    Q    E  E
------------------------|-------------------------|------------------------|
------------------------|-----------5--4----------|------------------------|
--------6----6-------5--|--------6--------4-------|--------6----6-------5--|
--------6----6----------|--------------------6----|--------6----6----------|
--4--4------------0--L--|--4--4-------------------|--4--4------------0--L--|
------------------------|-------------------------|------------------------|


  PM PM                    PM PM                    PM PM
  E  E  E  E  Q    Q       E  E  Q    Q    E  E     E  E  E  E  E  E  Q
------------------------|------------------------|-------------------------|
--------------5----L----|------------------------|-----------5--4----------|
--------6--L-------5----|--------6----6-------5--|--------6--------4-------|
--------6--L------------|--------6----6----------|--------------------6----|
--4--4-----4------------|--4--4------------0--L--|--4--4-------------------|
------------------------|------------------------|-------------------------|


  PM PM                    PM PM                    PM PM
  E  E  Q    Q    E  E     E  E  E  E  Q    Q       E  E  Q    Q    E  E
------------------------|------------------------|------------------------|
------------------------|--------------5----L----|------------------------|
--------6----6-------5--|--------6--L-------5----|--------6----6-------5--|
--------6----6----------|--------6--L------------|--------6----6----------|
--4--4------------0--L--|--4--4-----4------------|--4--4------------0--L--|
------------------------|------------------------|------------------------|


  PM PM                     PM PM                    PM PM
  E  E  E  E  E  E  Q       E  E  Q    Q    E  E     E  E  E  E  Q    Q
-------------------------|------------------------|------------------------|
-----------5--4----------|------------------------|--------------5----L----|
--------6--------4-------|--------6----6-------5--|--------6--L-------5----|
--------------------6----|--------6----6----------|--------6--L------------|
--4--4-------------------|--4--4------------0--L--|--4--4-----4------------|
-------------------------|------------------------|------------------------|


  PM PM                    PM PM
  E  E  Q    Q    E  E     E  E  E  E  E  E  Q
------------------------|-------------------------|
------------------------|-----------5--4----------|
--------6----6-------5--|--------6--------4-------|
--------6----6----------|--------------------6----|
--4--4------------0--L--|--4--4-------------------|
------------------------|-------------------------|


  PM PM PM    PM    PM PM PM PM       PM           PM PM PM
  S  S  E  E  E  E  E  S  S  E     E  E  Q    Q    S  S  E
--------------------------------|---------------------------|
--------------------------------|---------------------------|
--------------------------------|---------------------------|
--------------------------------|---------------------------|
-----------0-----0--------------|--3------------------------|
--0--0--0--0--0--0--0--0--0--0--|--3--3------------3--0--0--|


     PM    PM PM PM PM PM PM PM       PM
  E  E  E  E  S  S  E  S  S  E     E  E  Q    Q    Q
--------------------------------|-----------------------|
--------------------------------|-----------------------|
--------------------------------|-----------------------|
--------------------------------|-----------------------|
--0-----0-----------------------|--0--------------------|
--0--0--0--0--3--3--3--5--5--5--|--0--0-----------------|


  PM PM PM    PM    PM PM PM PM       PM           PM PM PM
  S  S  E  E  E  E  E  S  S  E     E  E  Q    Q    S  S  E
--------------------------------|---------------------------|
--------------------------------|---------------------------|
--------------------------------|---------------------------|
--------------------------------|---------------------------|
-----------0-----0--------------|--0------------------------|
--3--0--0--0--0--0--0--3--3--3--|--0--3------------5--5--5--|


     PM    PM PM PM PM    PM
  E  E  E  E  S  S  E  E  E     E  E  E  E  E  E  E   E
-----------------------------|---------------------------|
-----------------------------|---------------------------|
-----------------------------|-----------4-----7-----10--|
--5--------------------------|--5--6--3-----6-----9------|
--3-----5--------------5-----|---------------------------|
-----5--5--5--5--5--5-----5--|---------------------------|


         PM    PM PM PM PM
  E   E  E  E  E  E  E  E       Q      E   E  E   E  E  E
---------------------------|-------------------------------|
---------------------------|-------------------------------|
---------------------------|-------------------------------|
---------------------------|-------------------------------|
--3p--2--x--2--------------|--<>4br------------------2-----|
--3p--2--2--2--2--2--3--5--|-----------2h--3--5p--0-----3--|


         PM    PM PM PM PM           PM PM PM PM   W
  E   E  E  E  E  E  E  E     E   E  E  E  E  E    Q
---------------------------|----------------------------|
---------------------------|----------------------------|
---------------------------|----------------------------|
---------------------------|---------------2--4--<>5----|
--3p--2--x--2--------------|--6s--5--3--5---------------|
--3p--2--2--2--2--2--3--5--|--6s--5---------------------|


         PM    PM PM PM PM
  E   E  E  E  E  E  E  E       Q      E   E  E   E  E  E     W
---------------------------|-------------------------------|-------------------|
---------------------------|-------------------------------|-------------------|
---------------------------|-------------------------------|-------------------|
---------------------------|-------------------------------|-------------------|
--3p--2--x--2--------------|--<>4br------------------2--3--|--5----------------|
--3p--2--2--2--2--2--3--5--|-----------2h--3--5p--0--------|--5----------------|


                             PM    PM PM PM PM
  W                   E   E  E  E  E  E  E  E       Q      E   E  E   E  E  E
-------------------|---------------------------|-------------------------------|
-------------------|---------------------------|-------------------------------|
-------------------|---------------------------|-------------------------------|
--4----------------|---------------------------|-------------------------------|
--2----------------|--3p--2--x--2--------------|--<>4br------------------2-----|
-------------------|--3p--2--2--2--2--2--3--5--|-----------2h--3--5p--0-----3--|


         PM    PM PM PM PM           PM PM PM PM   W
  E   E  E  E  E  E  E  E     E   E  E  E  E  E    Q
---------------------------|----------------------------|
---------------------------|----------------------------|
---------------------------|----------------------------|
---------------------------|---------------2--4--<>5----|
--3p--2--x--2--------------|--6s--5--3--5---------------|
--3p--2--2--2--2--2--3--5--|--6s--5---------------------|


         PM    PM PM PM PM
  E   E  E  E  E  E  E  E       Q      E   E  E   E  E  E     W
---------------------------|-------------------------------|-------------------|
---------------------------|-------------------------------|-------------------|
---------------------------|-------------------------------|-------------------|
---------------------------|-------------------------------|-------------------|
--3p--2--x--2--------------|--<>4br------------------2--3--|--5----------------|
--3p--2--2--2--2--2--3--5--|-----------2h--3--5p--0--------|--5----------------|


  W                   W                   W
-------------------|-------------------|-------------------|
-------------------|-------------------|-------------------|
-------------------|-------------------|-------------------|
--4----------------|--5----------------|--7----------------|
--2----------------|--3----------------|--5----------------|
-------------------|-------------------|-------------------|


         PM    PM PM PM PM
  E   E  E  E  E  E  E  E       Q      E   E  E   E  E  E
---------------------------|-------------------------------|
---------------------------|-------------------------------|
---------------------------|-------------------------------|
---------------------------|-------------------------------|
--3p--2--x--2--------------|--<>4br------------------2-----|
--3p--2--2--2--2--2--3--5--|-----------2h--3--5p--0-----3--|


         PM    PM PM PM PM           PM PM PM PM   W
  E   E  E  E  E  E  E  E     E   E  E  E  E  E    Q
---------------------------|----------------------------|
---------------------------|----------------------------|
---------------------------|----------------------------|
---------------------------|---------------2--4--<>5----|
--3p--2--x--2--------------|--6s--5--3--5---------------|
--3p--2--2--2--2--2--3--5--|--6s--5---------------------|


         PM    PM PM PM PM
  E   E  E  E  E  E  E  E       Q      E   E  E   E  E  E     W
---------------------------|-------------------------------|-------------------|
---------------------------|-------------------------------|-------------------|
---------------------------|-------------------------------|-------------------|
---------------------------|-------------------------------|-------------------|
--3p--2--x--2--------------|--<>4br------------------2--3--|--5----------------|
--3p--2--2--2--2--2--3--5--|-----------2h--3--5p--0--------|--5----------------|


  W                   W                   W
-------------------|-------------------|-------------------|
-------------------|-------------------|-------------------|
-------------------|-------------------|-------------------|
--4----------------|--5----------------|--7----------------|
--2----------------|--3----------------|--5----------------|
-------------------|-------------------|-------------------|


         PM       PM PM PM PM
  E   E  E  E  E  E  S  S  E     Q    Q
------------------------------|------------||
------------------------------|------------||
------------------------------|------------||
--3s--2-----2--L--------------|--2---------||
--3s--2--0--2--L--2-----------|--2---------||
--3s--2--0--2--L--2--2--2--2--|--2---------||


Gtr II

                                       PM PM                     PM PM
     W                   H        Q    E  E     Q    E   E  Q    E  E
D||-------------------|----------------------|-------------------------|
A||-------------------|----------------------|-------------------------|
F||-------------------|----------------------|--7----------------------|
C||-------------------|----------------x--x--|--7----------------x--x--|
G||-------------------|----------------0--0--|--5----8p--5--7----0--0--|
C||-------------------|----------------0--0--|-------------------0--0--|


         PM PM        PM PM
  E   E  E  E  E   E  E  E     Q    E   E  Q    E   E
----------------------------|--------------------------|
----------------------------|--------------------------|
----------------------------|--7-----------------------|
-----10--x--x--6h--9--x--x--|--7-------------------10--|
--8------0--0---------0--0--|--5----8p--5--7----8------|
---------0--0---------0--0--|--------------------------|


                      PM PM                     PM PM
  E   E  E   E  E  E  E  E     Q    E   E  Q    E  E
----------------------------|-------------------------|
----------------------------|-------------------------|
-------------------9--------|--7----------------------|
--7--10--8--10--7-----x--x--|--7----------------x--x--|
----------------------0--0--|--5----8p--5--7----0--0--|
----------------------0--0--|-------------------0--0--|


         PM PM        PM PM
  E   E  E  E  E   E  E  E     Q    E   E  Q    E   E
----------------------------|--------------------------|
----------------------------|--------------------------|
----------------------------|--7-----------------------|
-----10--x--x--6h--9--x--x--|--7-------------------10--|
--8------0--0---------0--0--|--5----8p--5--7----8------|
---------0--0---------0--0--|--------------------------|


                            PM PM                     PM PM
   E    E    E   E   E   E  E  E     Q    E   E  Q    E  E
----------------------------------|-------------------------|
----------------------------------|-------------------------|
--10h--12p--10p--9--10p--9--------|--7----------------------|
----------------------------x--x--|--7----------------x--x--|
----------------------------0--0--|--5----8p--5--7----0--0--|
----------------------------0--0--|-------------------0--0--|


         PM PM        PM PM
  E   E  E  E  E   E  E  E     Q    E   E  Q    E   E
----------------------------|--------------------------|
----------------------------|--------------------------|
----------------------------|--7-----------------------|
-----10--x--x--6h--9--x--x--|--7-------------------10--|
--8------0--0---------0--0--|--5----8p--5--7----8------|
---------0--0---------0--0--|--------------------------|


                      PM PM                     PM PM
  E   E  E   E  E  E  E  E     Q    E   E  Q    E  E
----------------------------|-------------------------|
----------------------------|-------------------------|
-------------------9--------|--7----------------------|
--7--10--8--10--7-----x--x--|--7----------------x--x--|
----------------------0--0--|--5----8p--5--7----0--0--|
----------------------0--0--|-------------------0--0--|


         PM PM        PM PM
  E   E  E  E  E   E  E  E     Q    E   E  Q    E   E
----------------------------|--------------------------|
----------------------------|--------------------------|
----------------------------|--7-----------------------|
-----10--x--x--6h--9--x--x--|--7-------------------10--|
--8------0--0---------0--0--|--5----8p--5--7----8------|
---------0--0---------0--0--|--------------------------|


                                         PM PM PM    PM    PM PM PM PM
   E    E    E   E   E   E  Q    Q       S  S  E  E  E  E  E  S  S  E
--------------------------------------|--------------------------------|
--------------------------------------|--------------------------------|
--10h--12p--10p--9--10p--9--7---------|--------------------------------|
----------------------------7----3----|-----------2-----2--------------|
----------------------------5----3----|-----------2-----2--------------|
---------------------------------3----|--2--2--2-----2-----2--2--2--2--|


     PM              PM PM PM       PM    PM PM PM PM PM PM PM
  E  E  E   E  E  E  S  S  E     E  E  E  E  S  S  E  S  S  E
------------------------------|--------------------------------|
------------------------------|--------------------------------|
------------------------------|--------------------------------|
------------------6-----------|--2-----------------------------|
--8--5--7h--8--5--------------|--2-----8--5--------------------|
---------------------2--2--2--|-----2--------2--2--2--2--2--2--|


     PM                       PM PM PM    PM    PM PM PM PM
  E  E  E   E  E  E  E  E     S  S  E  E  E  E  E  S  S  E
---------------------------|--------------------------------|
---------------------------|--------------------------------|
---------------------------|--------------------------------|
------------------6-----9--|-----------2-----2--------------|
--8--5--7h--8--5-----8-----|-----------2-----2--------------|
---------------------------|--2--2--2-----2-----2--2--2--2--|


     PM              PM PM PM       PM       PM PM PM    PM
  E  E  E   E  E  E  S  S  E     E  E  E  E  S  S  E  E  E
------------------------------|-----------------------------|
------------------------------|-----------------------------|
------------------------------|-----------------------------|
------------------6-----------|--5-----5--------------5-----|
--8--5--7h--8--5--------------|--5-----5--------------------|
---------------------2--2--2--|-----5-----5--5--5--5-----5--|


                       PM PM PM    PM    PM PM PM PM
  E  E  E  E  E  E     S  S  E  E  E  E  E  S  S  E
--------------------|--------------------------------|
--------------------|--------------------------------|
--------------------|--------------------------------|
-----------6-----9--|-----------2-----2--------------|
--7--8--5-----8-----|-----------2-----2--------------|
--------------------|--2--2--2-----2-----2--2--2--2--|


     PM              PM PM PM       PM    PM PM PM PM PM PM PM
  E  E  E   E  E  E  S  S  E     E  E  E  E  S  S  E  S  S  E
------------------------------|--------------------------------|
------------------------------|--------------------------------|
------------------------------|--------------------------------|
------------------6-----------|--2-----------------------------|
--8--5--7h--8--5--------------|--2-----8--5--------------------|
---------------------2--2--2--|-----2--------2--2--2--2--2--2--|


     PM                       PM PM PM    PM    PM PM PM PM
  E  E  E   E  E  E  E  E     S  S  E  E  E  E  E  S  S  E
---------------------------|--------------------------------|
---------------------------|--------------------------------|
---------------------------|--------------------------------|
------------------6-----9--|-----------2-----2--------------|
--8--5--7h--8--5-----8-----|-----------2-----2--------------|
---------------------------|--2--2--2-----2-----2--2--2--2--|


     PM              PM PM PM       PM       PM PM PM    PM
  E  E  E   E  E  E  S  S  E     E  E  E  E  S  S  E  E  E
------------------------------|-----------------------------|
------------------------------|-----------------------------|
------------------------------|-----------------------------|
------------------6-----------|--5-----5--------------5-----|
--8--5--7h--8--5--------------|--5-----5--------------------|
---------------------2--2--2--|-----5-----5--5--5--5-----5--|


                       PM PM PM    PM    PM PM PM PM
  E  E  E  E  E  E     S  S  E  E  E  E  E  S  S  E
--------------------|--------------------------------|
--------------------|--------------------------------|
--------------------|--------------------------------|
-----------6-----9--|-----------2-----2--------------|
--7--8--5-----8-----|-----------2-----2--------------|
--------------------|--2--2--2-----2-----2--2--2--2--|


     PM              PM PM PM       PM    PM PM PM PM PM PM PM
  E  E  E   E  E  E  S  S  E     E  E  E  E  S  S  E  S  S  E
------------------------------|--------------------------------|
------------------------------|--------------------------------|
------------------------------|--------------------------------|
------------------6-----------|--2-----2-----------------------|
--8--5--7h--8--5--------------|--2-----2-----------------------|
---------------------2--2--2--|-----2-----2--2--2--2--2--2--2--|


     PM                       PM PM PM    PM    PM PM PM PM
  E  E  E   E  E  E  E  E     S  S  E  E  E  E  E  S  S  E
---------------------------|--------------------------------|
---------------------------|--------------------------------|
---------------------------|--------------------------------|
------------------6-----9--|-----------2-----2--------------|
--8--5--7h--8--5-----8-----|-----------2-----2--------------|
---------------------------|--2--2--2-----2-----2--2--2--2--|


     PM              PM PM PM       PM       PM PM PM    PM
  E  E  E   E  E  E  S  S  E     E  E  E  E  S  S  E  E  E
------------------------------|-----------------------------|
------------------------------|-----------------------------|
------------------------------|-----------------------------|
------------------6-----------|--5-----5--------------5-----|
--8--5--7h--8--5--------------|--5-----5--------------------|
---------------------2--2--2--|-----5-----5--5--5--5-----5--|


                               PM PM
  E  E  E  E  E  E   E   E     E  E  Q    E  E  E  E
----------------------------|-------------------------|
----------------------------|-------------------------|
----------------------------|--------6-------6-----5--|
-----------6-----9------12--|--------6----6--L--7--L--|
--7--8--5-----8-----11------|--4--4-------------------|
----------------------------|-------------------------|


  PM PM       PM             PM PM                     PM PM
  E  E  E  E  E  E  E  E     E  E  Q    E  E  E  E     E  E  E  E  E  E  E  E
--------------------------|-------------------------|--------------------------|
--------------------------|-------------------------|--------------4--L--------|
--------6--4-----4--5--6--|--------6-------6-----5--|--------6--L-----4-----6--|
--------------7-----------|--------6----6--L--7--L--|-----------6--------6--L--|
--4--4--------------------|--4--4-------------------|--4--4--------------------|
--------------------------|-------------------------|--------------------------|


  PM PM                     PM PM       PM             PM PM
  E  E  Q    E  E  E  E     E  E  E  E  E  E  E  E     E  E  Q    E  E  E  E
-------------------------|--------------------------|-------------------------|
-------------------------|--------------------------|-------------------------|
--------6-------6-----5--|--------6--4-----4--5--6--|--------6-------6-----5--|
--------6----6--L--7--L--|--------------7-----------|--------6----6--L--7--L--|
--4--4-------------------|--4--4--------------------|--4--4-------------------|
-------------------------|--------------------------|-------------------------|


  PM PM                      PM PM                     PM PM       PM
  E  E  E  E  E  E  E  E     E  E  Q    E  E  E  E     E  E  E  E  E  E  E  E
--------------------------|-------------------------|--------------------------|
--------------4--L--------|-------------------------|--------------------------|
--------6--4-----4-----6--|--------6-------6-----5--|--------6--4-----4--5--6--|
--------------------6--L--|--------6----6--L--7--L--|--------------7-----------|
--4--4--------------------|--4--4-------------------|--4--4--------------------|
--------------------------|-------------------------|--------------------------|


  PM PM                     PM PM                      PM PM
  E  E  Q    E  E  E  E     E  E  E  E  E  E  E  E     E  E  Q    E  E  E  E
-------------------------|--------------------------|-------------------------|
-------------------------|--------------4--L--------|-------------------------|
--------6-------6-----5--|--------6--L-----4-----6--|--------6-------6-----5--|
--------6----6--L--7--L--|-----------6--------6--L--|--------6----6--L--7--L--|
--4--4-------------------|--4--4--------------------|--4--4-------------------|
-------------------------|--------------------------|-------------------------|


  PM PM       PM             PM PM                     PM PM
  E  E  E  E  E  E  E  E     E  E  Q    E  E  E  E     E  E  E  E  E  E  E  E
--------------------------|-------------------------|--------------------------|
--------------------------|-------------------------|--------------4--L--------|
--------6--4-----4--5--6--|--------6-------6-----5--|--------6--4-----4-----6--|
--------------7-----------|--------6----6--L--7--L--|--------------------6--L--|
--4--4--------------------|--4--4-------------------|--4--4--------------------|
--------------------------|-------------------------|--------------------------|


  PM PM PM    PM    PM PM PM PM       PM              PM PM PM
  S  S  E  E  E  E  E  S  S  E     E  E  E   E  E  E  S  S  E
--------------------------------|------------------------------|
--------------------------------|------------------------------|
--------------------------------|------------------------------|
-----------2-----2--------------|------------------6-----------|
-----------2-----2--------------|--8--5--7h--8--5--------------|
--2--2--2-----2-----2--2--2--2--|---------------------2--2--2--|


     PM    PM PM PM PM PM PM PM       PM
  E  E  E  E  S  S  E  S  S  E     E  E  E   E  E  E  E  E
--------------------------------|---------------------------|
--------------------------------|---------------------------|
--------------------------------|---------------------------|
--2-----2-----------------------|------------------6-----9--|
--2-----2-----------------------|--8--5--7h--8--5-----8-----|
-----2-----2--2--2--2--2--2--2--|---------------------------|


  PM PM PM    PM    PM PM PM PM       PM              PM PM PM
  S  S  E  E  E  E  E  S  S  E     E  E  E   E  E  E  S  S  E
--------------------------------|------------------------------|
--------------------------------|------------------------------|
--------------------------------|------------------------------|
-----------2-----2--------------|------------------6-----------|
-----------2-----2--------------|--8--5--7h--8--5--------------|
--2--2--2-----2-----2--2--2--2--|---------------------2--2--2--|


     PM    PM PM PM PM    PM
  E  E  E  E  S  S  E  E  E     E  E  E  E  E  E
-----------------------------|--------------------|
-----------------------------|--------------------|
-----------------------------|--------------------|
--5-----5--------------5-----|-----------6-----9--|
--5-----5--------------------|--7--8--5-----8-----|
-----5-----5--5--5--5-----5--|--------------------|


  PM PM PM    PM    PM PM PM PM       PM              PM PM PM
  S  S  E  E  E  E  E  S  S  E     E  E  E   E  E  E  S  S  E
--------------------------------|------------------------------|
--------------------------------|------------------------------|
--------------------------------|------------------------------|
-----------2-----2--------------|------------------6-----------|
-----------2-----2--------------|--8--5--7h--8--5--------------|
--2--2--2-----2-----2--2--2--2--|---------------------2--2--2--|


     PM    PM PM PM PM PM PM PM       PM
  E  E  E  E  S  S  E  S  S  E     E  E  E   E  E  E  E  E
--------------------------------|---------------------------|
--------------------------------|---------------------------|
--------------------------------|---------------------------|
--2-----2-----------------------|------------------6-----9--|
--2-----2-----------------------|--8--5--7h--8--5-----8-----|
-----2-----2--2--2--2--2--2--2--|---------------------------|


  PM PM PM    PM    PM PM PM PM       PM              PM PM PM
  S  S  E  E  E  E  E  S  S  E     E  E  E   E  E  E  S  S  E
--------------------------------|------------------------------|
--------------------------------|------------------------------|
--------------------------------|------------------------------|
-----------2-----2--------------|------------------6-----------|
-----------2-----2--------------|--8--5--7h--8--5--------------|
--2--2--2-----2-----2--2--2--2--|---------------------2--2--2--|


     PM    PM PM PM PM    PM
  E  E  E  E  S  S  E  E  E     E  E  E  E  E  E   E   E
-----------------------------|----------------------------|
-----------------------------|----------------------------|
-----------------------------|----------------------------|
--5-----5--------------5-----|-----------6-----9------12--|
--5-----5--------------------|--7--8--5-----8-----11------|
-----5-----5--5--5--5-----5--|----------------------------|


         PM    PM PM PM PM
  E   E  E  E  E  E  E  E       Q      E   E  E   E  E  E
---------------------------|-------------------------------|
---------------------------|-------------------------------|
---------------------------|-------------------------------|
---------------------------|-------------------------------|
--3p--2--x--2--------------|-------------------------2-----|
--3p--2--2--2--2--2--3--5--|--<>6br----2h--3--5p--0-----3--|


         PM    PM PM PM PM              PM PM PM
  E   E  E  E  E  E  E  E     E   E  E  E  E  E  E  E
---------------------------|---------------------------|
---------------------------|---------------------------|
---------------------------|---------------------7--4--|
---------------------------|---------7--4--5--7--------|
--3p--2--x--2--------------|--6s--5--------------------|
--3p--2--2--2--2--2--3--5--|--6s--5--------------------|


         PM    PM PM PM PM           PM PM
  E   E  E  E  E  E  E  E     E   E  E  E  E   E  E  E
---------------------------|----------------------------|
---------------------------|----------------------------|
---------------------------|----------------------------|
---------------------------|----------------------------|
--3p--2--x--2--------------|--6s--5--3--3---------2-----|
--3p--2--2--2--2--2--3--5--|--6s--5--3--3--5p--0-----3--|


          PM PM PM PM PM PM    PM PM PM
  S  S E  E  E  E  E  E  E     E  E  E  E  E  E  E  E
----------------------------|--------------------------|
----------------------------|--------8--8--7--7--8--8--|
----------9--9--7--7--9--9--|--7--7--------------------|
--7s-9-L--------------------|--------------------------|
----------------------------|--------------------------|
----------------------------|--------------------------|


         PM    PM PM PM PM
  E   E  E  E  E  E  E  E       Q      E   E  E   E  E  E
---------------------------|-------------------------------|
---------------------------|-------------------------------|
---------------------------|-------------------------------|
---------------------------|-------------------------------|
--3p--2--x--2--------------|-------------------------2-----|
--3p--2--2--2--2--2--3--5--|--<>6br----2h--3--5p--0-----3--|


         PM    PM PM PM PM              PM PM PM
  E   E  E  E  E  E  E  E     E   E  E  E  E  E  E   E
---------------------------|----------------------------|
---------------------------|----------------------------|
---------------------------|---------------------7p--4--|
---------------------------|---------7--4--5--7---------|
--3p--2--x--2--------------|--6s--5---------------------|
--3p--2--2--2--2--2--3--5--|--6s--5---------------------|


         PM    PM PM PM PM           PM PM
  E   E  E  E  E  E  E  E     E   E  E  E  E   E  E  E
---------------------------|----------------------------|
---------------------------|----------------------------|
---------------------------|----------------------------|
---------------------------|----------------------------|
--3p--2--x--2--------------|--6s--5--3--3---------2-----|
--3p--2--2--2--2--2--3--5--|--6s--5--3--3--5p--0-----3--|


          PM PM PM PM PM PM    PM PM PM
  S  S E  E  E  E  E  E  E     E  E  E  E  E  E  E  E
----------------------------|--------------------------|
----------------------------|--------8--8--7--7--8--8--|
----------9--9--7--7--9--9--|--7--7--------------------|
--7s-9-L--------------------|--------------------------|
----------------------------|--------------------------|
----------------------------|--------------------------|


   S   S E   E   E   E   E   E   E      E   E   S   S  E   E   E   E   E
------------12--12--10--10--12--12--|--10--10--12s-15-15--14--14--15--15--|
--10s-12-L--------------------------|-------------------------------------|
------------------------------------|-------------------------------------|
------------------------------------|-------------------------------------|
------------------------------------|-------------------------------------|
------------------------------------|-------------------------------------|


  PM PM                     PM PM        PM PM
  E  E  Q    E  E  E  E     E  E  E   E  E  E  E   E
-------------------------|----------------------------|
-------------------------|----------------------------|
-------------------------|----------------------------|
--------7----------------|-----------10--------6h--9--|
--0--0--5----8--5--7--8--|--0--0--8------0--0---------|
--0--0-------------------|--0--0---------0--0---------|


  PM PM
  E  E  Q    E  E  E  E     E   E   E    E    E  E   E  E
-------------------------|---------------------------------|
-------------------------|---------------------------------|
-------------------------|---------10h--12p--10---------9--|
--------7----------------|-----10-------------------10-----|
--0--0--5----8--5--7--8--|--8--------------------8---------|
--0--0-------------------|---------------------------------|


  PM PM                     PM PM        PM PM
  E  E  Q    E  E  E  E     E  E  E   E  E  E  E   E
-------------------------|----------------------------|
-------------------------|----------------------------|
-------------------------|----------------------------|
--------7----------------|-----------10--------6h--9--|
--0--0--5----8--5--7--8--|--0--0--8------0--0---------|
--0--0-------------------|--0--0---------0--0---------|


  PM PM
  E  E  Q    E  E  E  E     E   E   E    E    E  E   E  E
-------------------------|---------------------------------|
-------------------------|---------------------------------|
-------------------------|---------10h--12p--10---------9--|
--------7----------------|-----10-------------------10-----|
--0--0--5----8--5--7--8--|--8--------------------8---------|
--0--0-------------------|---------------------------------|


  PM PM                     PM PM        PM PM
  E  E  Q    E  E  E  E     E  E  E   E  E  E  E   E
-------------------------|----------------------------|
-------------------------|----------------------------|
-------------------------|----------------------------|
--------7----------------|-----------10--------6h--9--|
--0--0--5----8--5--7--8--|--0--0--8------0--0---------|
--0--0-------------------|--0--0---------0--0---------|


  PM PM
  E  E  Q    E  E  E  E     E   E   E    E    E   E   E   E
-------------------------|-----------------------------------|
-------------------------|-----------------------------------|
-------------------------|---------10h--12p--10------10p--9--|
--------7----------------|-----10----------------10----------|
--0--0--5----8--5--7--8--|--8--------------------------------|
--0--0-------------------|-----------------------------------|


  PM PM                     PM PM        PM PM
  E  E  Q    E  E  E  E     E  E  E   E  E  E  E   E
-------------------------|----------------------------|
-------------------------|----------------------------|
-------------------------|----------------------------|
--------7----------------|-----------10--------6h--9--|
--0--0--5----8--5--7--8--|--0--0--8------0--0---------|
--0--0-------------------|--0--0---------0--0---------|


  PM PM
  E  E  Q    E  E  E  E     E   E   E   E   E   E  E   E
-------------------------|--------------------------------|
-------------------------|--------------------------------|
-------------------------|---------10--12--10---------10--|
--------7----------------|-----10--------------10---------|
--0--0--5----8--5--7--8--|--8----------------------8------|
--0--0-------------------|--------------------------------|


  E  E  E  E  E  E  E  E     E  E  E  E  E  E  E  E
--------------------------|--------------------------|
--------------------------|--------------------------|
--------------------------|--------------------------|
--9--9--9--7--L--7--7--5--|--L--5--5--7--L--7--7--7--|
--7--7--7--5--L--5--5--3--|--L--3--3--5--L--5--5--5--|
--------------------------|--------------------------|


  E  E  E  E  E  E  E  E     E  E  E  E  H           E  E  E  E  E  E  E   E
--------------------------|-----------------------|---------------------------|
--------------------------|-----------------------|---------------------------|
--------------------------|-----------------------|---------------------------|
--5--5--5--7--L--7--7--9--|--L--9--9--0--L--------|--9--9--9--7--L--7--7--12--|
--3--3--3--5--L--5--5--7--|--L--7--7--0--L--------|--7--7--7--5--L--5--5--10--|
--------------------------|-----------0--L--------|---------------------------|


  E   E   E  E  E  E  E  E     E  E  E  E  E  E  E  E
----------------------------|--------------------------|
----------------------------|--------------------------|
----------------------------|--------------------------|
--L--12--12--7--L--7--7--7--|--5--5--5--7--L--7--7--9--|
--L--10--10--5--L--5--5--5--|--3--3--3--5--L--5--5--7--|
----------------------------|--------------------------|


  E  E  E   E  E   E   E   E      E   E   E   E  E   E   E   E
------------------------------|----------------------------------|
------------------------------|----------------------------------|
------------------------------|--14--13--14--16--L--14--16--16b--|
--L--9--9--10--L--10--10--10--|----------------------------------|
--L--7--7---8--L---8---8---8--|----------------------------------|
------------------------------|----------------------------------|


  E   E   E   E  E   E   Q        E   E   E   E  E   E   E   E
------------------------------|----------------------------------|
------------------------------|----------------------------------|
--L--16--14--16--L--14--13----|--14--13--14--16--L--14--16--16b--|
------------------------------|----------------------------------|
------------------------------|----------------------------------|
------------------------------|----------------------------------|


      PM  PM
  E   E   E   E  H            E   E   E   E  E   E   E   E
--------------------------|----------------------------------|
-----12--14--12--L--------|----------------------------------|
--L-----------------------|--14--13--14--16--L--14--16--16b--|
--------------------------|----------------------------------|
--------------------------|----------------------------------|
--------------------------|----------------------------------|


  E   E   E   E  E   E   Q
------------------------------|
------------------------------|
--L--16--14--16--L--14--13----|
------------------------------|
------------------------------|
------------------------------|


   S  S  S  S  S  S  S  S  S  S  S  S  S  S  S  S
--------------------------------------16-17-19-16-|
--------------------15-17-19-15-17-19-------------|
--14-16-18-14-16-18-------------------------------|
--------------------------------------------------|
--------------------------------------------------|
--------------------------------------------------|


                                                PM PM PM PM PM
   S  S   S  S  S  S  S  S  H            E   E  E  E  E  E  E  E
--17-19S-21-17-19-21-22-21-22b--------|---------------------------|
--------------------------------------|---------------------------|
--------------------------------------|---------------------------|
--------------------------------------|---------------------------|
--------------------------------------|--2h--3--3--3--3--3--3--5--|
--------------------------------------|--2h--3--3--3--3--3--3--5--|


                                PM PM    PM PM          PM PM
  E  E  Q    H           E   E  E  E  E  E  E  E     E  E  E  E  E  E  E  E
----------------------|---------------------------|--------------------------|
----------------------|---------------------------|--------------------------|
----------------------|---------------------------|--------------------------|
----------------------|------------------------4--|--L--4--4--5--L--5--5--5--|
--x--0--L----L--------|--0h--2--2--2--2--2--2--2--|--L--2--2--3--L--3--3--3--|
--x--0--L----L--------|--0h--2--2--2--2--2--2-----|--------------------------|


         PM PM PM PM PM                                     PM PM    PM PM
  E   E  E  E  E  E  E  E     E  E  Q    H           E   E  E  E  E  E  E  E
---------------------------|----------------------|---------------------------|
---------------------------|----------------------|---------------------------|
---------------------------|----------------------|---------------------------|
---------------------------|----------------------|---------------------------|
--2h--3--3--3--3--3--3--5--|--x--0--L----L--------|--0h--2--2--2--2--2--2--5--|
--2h--3--3--3--3--3--3--5--|--x--0--L----L--------|--0h--2--2--2--2--2--2--5--|


     PM PM                          PM PM PM PM PM
  E  E  E  E  E  E  E  E     E   E  E  E  E  E  E  E     E  E  Q    H
--------------------------|---------------------------|----------------------|
--------------------------|---------------------------|----------------------|
--------------------------|---------------------------|----------------------|
-----------7--L--7--7--7--|---------------------------|----------------------|
--L--5--5--5--L--5--5--5--|--2h--3--3--3--3--3--3--5--|--x--0--L----L--------|
--L--5--5-----------------|--2h--3--3--3--3--3--3--5--|--x--0--L----L--------|


         PM PM    PM PM          PM PM
  E   E  E  E  E  E  E  E     E  E  E  E  E  E  E  E
---------------------------|--------------------------|
---------------------------|--------------------------|
---------------------------|--------------------------|
------------------------4--|--L--4--4--5--L--5--5--5--|
--0h--2--2--2--2--2--2--2--|--L--2--2--3--L--3--3--3--|
--0h--2--2--2--2--2--2-----|--------------------------|


         PM PM PM PM PM                                     PM PM    PM PM
  E   E  E  E  E  E  E  E     E  E  Q    H           E   E  E  E  E  E  E  E
---------------------------|----------------------|---------------------------|
---------------------------|----------------------|---------------------------|
---------------------------|----------------------|---------------------------|
---------------------------|----------------------|---------------------------|
--2h--3--3--3--3--3--3--5--|--x--0--L----L--------|--0h--2--2--2--2--2--2--5--|
--2h--3--3--3--3--3--3--5--|--x--0--L----L--------|--0h--2--2--2--2--2--2--5--|


     PM PM                          PM PM PM PM PM
  E  E  E  E  E  E  E  E     E   E  E  E  E  E  E  E     E  E  Q    H
--------------------------|---------------------------|----------------------|
--------------------------|---------------------------|----------------------|
--------------------------|---------------------------|----------------------|
-----------7--L--7--7--7--|---------------------------|----------------------|
--L--5--5--5--L--5--5--5--|--2h--3--3--3--3--3--3--5--|--x--0--L----L--------|
--L--5--5-----------------|--2h--3--3--3--3--3--3--5--|--x--0--L----L--------|


         PM PM    PM PM          PM PM
  E   E  E  E  E  E  E  E     E  E  E  E  E  E  E  E
---------------------------|--------------------------|
---------------------------|--------------------------|
---------------------------|--------------------------|
------------------------4--|--L--4--4--5--L--5--5--5--|
--0h--2--2--2--2--2--2--2--|--L--2--2--3--L--3--3--3--|
--0h--2--2--2--2--2--2-----|--------------------------|


         PM PM PM PM PM                                     PM PM    PM PM
  E   E  E  E  E  E  E  E     E  E  Q    H           E   E  E  E  E  E  E  E
---------------------------|----------------------|---------------------------|
---------------------------|----------------------|---------------------------|
---------------------------|----------------------|---------------------------|
---------------------------|----------------------|---------------------------|
--2h--3--3--3--3--3--3--5--|--x--0--L----L--------|--0h--2--2--2--2--2--2--5--|
--2h--3--3--3--3--3--3--5--|--x--0--L----L--------|--0h--2--2--2--2--2--2--5--|


     PM PM                          PM PM PM PM PM
  E  E  E  E  E  E  E  E     E   E  E  E  E  E  E  E     E  E  Q    H
--------------------------|---------------------------|----------------------|
--------------------------|---------------------------|----------------------|
--------------------------|---------------------------|----------------------|
-----------7--L--7--7--7--|---------------------------|----------------------|
--L--5--5--5--L--5--5--5--|--2h--3--3--3--3--3--3--5--|--x--0--L----L--------|
--L--5--5-----------------|--2h--3--3--3--3--3--3--5--|--x--0--L----L--------|


         PM PM    PM PM          PM PM
  E   E  E  E  E  E  E  E     E  E  E  E  E  E  E  E
---------------------------|--------------------------|
---------------------------|--------------------------|
---------------------------|--------------------------|
------------------------4--|--L--4--4--5--L--5--5--5--|
--0h--2--2--2--2--2--2--2--|--L--2--2--3--L--3--3--3--|
--0h--2--2--2--2--2--2-----|--------------------------|


         PM PM PM PM PM                                     PM PM    PM PM
  E   E  E  E  E  E  E  E     E  E  Q    H           E   E  E  E  E  E  E  E
---------------------------|----------------------|---------------------------|
---------------------------|----------------------|---------------------------|
---------------------------|----------------------|---------------------------|
---------------------------|----------------------|---------------------------|
--2h--3--3--3--3--3--3--5--|--x--0--L----L--------|--0h--2--2--2--2--2--2--5--|
--2h--3--3--3--3--3--3--5--|--x--0--L----L--------|--0h--2--2--2--2--2--2--5--|


     PM PM                   PM PM                     PM PM       PM
  E  E  E  E  E  E  E  E     E  E  Q    E  E  E  E     E  E  E  E  E  E  E  E
--------------------------|-------------------------|--------------------------|
--------------------------|-------------------------|--------------------------|
--------------------------|--------6-------6-----5--|--------6--4-----4--5--6--|
-----------7--L--7--7--7--|--------6----6--L--7--L--|--------------7-----------|
--L--5--5--5--L--5--5--5--|--4--4-------------------|--4--4--------------------|
--L--5--5-----------------|-------------------------|--------------------------|


  PM PM                     PM PM                      PM PM
  E  E  Q    E  E  E  E     E  E  E  E  E  E  E  E     E  E  Q    E  E  E  E
-------------------------|--------------------------|-------------------------|
-------------------------|--------------4--L--------|-------------------------|
--------6-------6-----5--|--------6--L-----4-----6--|--------6-------6-----5--|
--------6----6--L--7--L--|-----------6--------6--L--|--------6----6--L--7--L--|
--4--4-------------------|--4--4--------------------|--4--4-------------------|
-------------------------|--------------------------|-------------------------|


  PM PM       PM             PM PM                     PM PM
  E  E  E  E  E  E  E  E     E  E  Q    E  E  E  E     E  E  E  E  E  E  E  E
--------------------------|-------------------------|--------------------------|
--------------------------|-------------------------|--------------4--L--------|
--------6--4-----4--5--6--|--------6-------6-----5--|--------6--4-----4-----6--|
--------------7-----------|--------6----6--L--7--L--|--------------------6--L--|
--4--4--------------------|--4--4-------------------|--4--4--------------------|
--------------------------|-------------------------|--------------------------|


  PM PM                     PM PM       PM             PM PM
  E  E  Q    E  E  E  E     E  E  E  E  E  E  E  E     E  E  Q    E  E  E  E
-------------------------|--------------------------|-------------------------|
-------------------------|--------------------------|-------------------------|
--------6-------6-----5--|--------6--4-----4--5--6--|--------6-------6-----5--|
--------6----6--L--7--L--|--------------7-----------|--------6----6--L--7--L--|
--4--4-------------------|--4--4--------------------|--4--4-------------------|
-------------------------|--------------------------|-------------------------|


  PM PM                      PM PM                     PM PM       PM
  E  E  E  E  E  E  E  E     E  E  Q    E  E  E  E     E  E  E  E  E  E  E  E
--------------------------|-------------------------|--------------------------|
--------------4--L--------|-------------------------|--------------------------|
--------6--L-----4-----6--|--------6-------6-----5--|--------6--4-----4--5--6--|
-----------6--------6--L--|--------6----6--L--7--L--|--------------7-----------|
--4--4--------------------|--4--4-------------------|--4--4--------------------|
--------------------------|-------------------------|--------------------------|


  PM PM                     PM PM
  E  E  Q    E  E  E  E     E  E  E  E  E  E  E  E
-------------------------|--------------------------|
-------------------------|--------------4--L--------|
--------6-------6-----5--|--------6--4-----4-----6--|
--------6----6--L--7--L--|--------------------6--L--|
--4--4-------------------|--4--4--------------------|
-------------------------|--------------------------|


  PM PM PM    PM    PM PM PM PM       PM             PM PM PM
  S  S  E  E  E  E  E  S  S  E     E  E  E  E  E  E  S  S  E
--------------------------------|-----------------------------|
--------------------------------|-----------------------------|
--------------------------------|-----------------------------|
-----------3-----3--------------|-----------------6-----------|
-----------5-----5--------------|--3-----7--8--5--------------|
--3--0--0-----0-----0--3--0--0--|--3--3--------------3--0--0--|


     PM    PM PM PM PM PM PM PM       PM
  E  E  E  E  S  S  E  S  S  E     E  E  E  E  E  E  E  E
--------------------------------|--------------------------|
--------------------------------|--------------------------|
--------------------------------|--------------------------|
--3-----3-----------------------|--3--------------6-----9--|
--5-----5-----------------------|--5-----7--8--5-----8-----|
-----0-----0--3--3--3--5--5--5--|-----0--------------------|


  PM PM PM    PM    PM PM PM PM       PM             PM PM PM
  S  S  E  E  E  E  E  S  S  E     E  E  E  E  E  E  S  S  E
--------------------------------|-----------------------------|
--------------------------------|-----------------------------|
--------------------------------|-----------------------------|
-----------3-----3--------------|--3--------------6-----------|
-----------5-----5--------------|--5-----7--8--5--------------|
--3--0--0-----0-----0--3--3--3--|-----3--------------5--5--5--|


     PM    PM PM PM PM    PM
  E  E  E  E  S  S  E  E  E     E  E  E  E  E  E   E   E
-----------------------------|----------------------------|
-----------------------------|----------------------------|
-----------------------------|----------------------------|
--5-----5--------------------|-----------6-----9------12--|
--3-----5--------------5-----|--7--8--5-----8-----11------|
-----5-----5--5--5--5--5--5--|----------------------------|


         PM    PM PM PM PM
  E   E  E  E  E  E  E  E       Q      E   E  E   E  E  E
---------------------------|-------------------------------|
---------------------------|-------------------------------|
---------------------------|-------------------------------|
---------------------------|-------------------------------|
--3p--2--x--2--------------|-------------------------2-----|
--3p--2--2--2--2--2--3--5--|--<>6br----2h--3--5p--0-----3--|


         PM    PM PM PM PM              PM PM PM
  E   E  E  E  E  E  E  E     E   E  E  E  E  E  E  E
---------------------------|---------------------------|
---------------------------|---------------------------|
---------------------------|---------------------7--4--|
---------------------------|---------7--4--5--7--------|
--3p--2--x--2--------------|--6s--5--------------------|
--3p--2--2--2--2--2--3--5--|--6s--5--------------------|


         PM    PM PM PM PM           PM PM
  E   E  E  E  E  E  E  E     E   E  E  E  E   E  E  E
---------------------------|----------------------------|
---------------------------|----------------------------|
---------------------------|----------------------------|
---------------------------|----------------------------|
--3p--2--x--2--------------|--6s--5--3--3---------2-----|
--3p--2--2--2--2--2--3--5--|--6s--5--3--3--5p--0-----3--|


          PM PM PM PM PM PM    PM PM PM
  S  S E  E  E  E  E  E  E     E  E  E  E  E  E  E  E
----------------------------|--------------------------|
----------------------------|--------8--8--7--7--8--8--|
----------9--9--7--7--9--9--|--7--7--------------------|
--7s-9-L--------------------|--------------------------|
----------------------------|--------------------------|
----------------------------|--------------------------|


         PM    PM PM PM PM
  E   E  E  E  E  E  E  E       Q      E   E  E   E  E  E
---------------------------|-------------------------------|
---------------------------|-------------------------------|
---------------------------|-------------------------------|
---------------------------|-------------------------------|
--3p--2--x--2--------------|-------------------------2-----|
--3p--2--2--2--2--2--3--5--|--<>6br----2h--3--5p--0-----3--|


         PM    PM PM PM PM              PM PM PM
  E   E  E  E  E  E  E  E     E   E  E  E  E  E  E   E
---------------------------|----------------------------|
---------------------------|----------------------------|
---------------------------|---------------------7p--4--|
---------------------------|---------7--4--5--7---------|
--3p--2--x--2--------------|--6s--5---------------------|
--3p--2--2--2--2--2--3--5--|--6s--5---------------------|


         PM    PM PM PM PM           PM PM
  E   E  E  E  E  E  E  E     E   E  E  E  E   E  E  E
---------------------------|----------------------------|
---------------------------|----------------------------|
---------------------------|----------------------------|
---------------------------|----------------------------|
--3p--2--x--2--------------|--6s--5--3--3---------2-----|
--3p--2--2--2--2--2--3--5--|--6s--5--3--3--5p--0-----3--|


          PM PM PM PM PM PM    PM PM PM
  S  S E  E  E  E  E  E  E     E  E  E  E  E  E  E  E
----------------------------|--------------------------|
----------------------------|--------8--8--7--7--8--8--|
----------9--9--7--7--9--9--|--7--7--------------------|
--7s-9-L--------------------|--------------------------|
----------------------------|--------------------------|
----------------------------|--------------------------|


   S   S E   E   E   E   E   E   E      E   E   S   S  E   E   E   E   E
------------12--12--10--10--12--12--|--10--10--12s-15-15--14--14--15--15--|
--10s-12-L--------------------------|-------------------------------------|
------------------------------------|-------------------------------------|
------------------------------------|-------------------------------------|
------------------------------------|-------------------------------------|
------------------------------------|-------------------------------------|


         PM    PM PM PM PM
  E   E  E  E  E  E  E  E       Q      E   E  E   E  E  E
---------------------------|-------------------------------|
---------------------------|-------------------------------|
---------------------------|-------------------------------|
---------------------------|-------------------------------|
--3p--2--x--2--------------|-------------------------2-----|
--3p--2--2--2--2--2--3--5--|--<>6br----2h--3--5p--0-----3--|


         PM    PM PM PM PM              PM PM PM
  E   E  E  E  E  E  E  E     E   E  E  E  E  E  E   E
---------------------------|----------------------------|
---------------------------|----------------------------|
---------------------------|---------------------7p--4--|
---------------------------|---------7--4--5--7---------|
--3p--2--x--2--------------|--6s--5---------------------|
--3p--2--2--2--2--2--3--5--|--6s--5---------------------|


         PM    PM PM PM PM           PM PM
  E   E  E  E  E  E  E  E     E   E  E  E  E   E  E  E
---------------------------|----------------------------|
---------------------------|----------------------------|
---------------------------|----------------------------|
---------------------------|----------------------------|
--3p--2--x--2--------------|--6s--5--3--3---------2-----|
--3p--2--2--2--2--2--3--5--|--6s--5--3--3--5p--0-----3--|


          PM PM PM PM PM PM    PM PM PM
  S  S E  E  E  E  E  E  E     E  E  E  E  E  E  E  E
----------------------------|--------------------------|
----------------------------|--------8--8--7--7--8--8--|
----------9--9--7--7--9--9--|--7--7--------------------|
--7s-9-L--------------------|--------------------------|
----------------------------|--------------------------|
----------------------------|--------------------------|


   S   S E   E   E   E   E   E   E      E   E   S   S  E   E   E   E   E
------------12--12--10--10--12--12--|--10--10--12s-15-15--14--14--15--15--|
--10s-12-L--------------------------|-------------------------------------|
------------------------------------|-------------------------------------|
------------------------------------|-------------------------------------|
------------------------------------|-------------------------------------|
------------------------------------|-------------------------------------|


         PM       PM PM PM PM
  E   E  E  E  E  E  S  S  E     Q    Q
------------------------------|------------||
------------------------------|------------||
------------------------------|------------||
--3s--2-----2--L--------------|--2---------||
--3s--2--0--2--L--2-----------|--2---------||
--3s--2--0--2--L--2--2--2--2--|--2---------||


Gtr III

D||-------|-------|-------|-------|-------|-------|-------|-------|-------|
A||-------|-------|-------|-------|-------|-------|-------|-------|-------|
F||-------|-------|-------|-------|-------|-------|-------|-------|-------|
C||-------|-------|-------|-------|-------|-------|-------|-------|-------|
G||-------|-------|-------|-------|-------|-------|-------|-------|-------|
C||-------|-------|-------|-------|-------|-------|-------|-------|-------|


-------|-------|-------|-------|-------|-------|-------|-------|-------|-------|
-------|-------|-------|-------|-------|-------|-------|-------|-------|-------|
-------|-------|-------|-------|-------|-------|-------|-------|-------|-------|
-------|-------|-------|-------|-------|-------|-------|-------|-------|-------|
-------|-------|-------|-------|-------|-------|-------|-------|-------|-------|
-------|-------|-------|-------|-------|-------|-------|-------|-------|-------|


-------|-------|-------|-------|-------|-------|-------|-------|-------|-------|
-------|-------|-------|-------|-------|-------|-------|-------|-------|-------|
-------|-------|-------|-------|-------|-------|-------|-------|-------|-------|
-------|-------|-------|-------|-------|-------|-------|-------|-------|-------|
-------|-------|-------|-------|-------|-------|-------|-------|-------|-------|
-------|-------|-------|-------|-------|-------|-------|-------|-------|-------|


-------|-------|-------|-------|-------|-------|-------|-------|-------|-------|
-------|-------|-------|-------|-------|-------|-------|-------|-------|-------|
-------|-------|-------|-------|-------|-------|-------|-------|-------|-------|
-------|-------|-------|-------|-------|-------|-------|-------|-------|-------|
-------|-------|-------|-------|-------|-------|-------|-------|-------|-------|
-------|-------|-------|-------|-------|-------|-------|-------|-------|-------|


-------|-------|-------|-------|-------|-------|-------|-------|-------|-------|
-------|-------|-------|-------|-------|-------|-------|-------|-------|-------|
-------|-------|-------|-------|-------|-------|-------|-------|-------|-------|
-------|-------|-------|-------|-------|-------|-------|-------|-------|-------|
-------|-------|-------|-------|-------|-------|-------|-------|-------|-------|
-------|-------|-------|-------|-------|-------|-------|-------|-------|-------|


-------|-------|-------|-------|-------|-------|-------|-------|-------|-------|
-------|-------|-------|-------|-------|-------|-------|-------|-------|-------|
-------|-------|-------|-------|-------|-------|-------|-------|-------|-------|
-------|-------|-------|-------|-------|-------|-------|-------|-------|-------|
-------|-------|-------|-------|-------|-------|-------|-------|-------|-------|
-------|-------|-------|-------|-------|-------|-------|-------|-------|-------|


-------|-------|-------|-------|-------|-------|-------|-------|-------|-------|
-------|-------|-------|-------|-------|-------|-------|-------|-------|-------|
-------|-------|-------|-------|-------|-------|-------|-------|-------|-------|
-------|-------|-------|-------|-------|-------|-------|-------|-------|-------|
-------|-------|-------|-------|-------|-------|-------|-------|-------|-------|
-------|-------|-------|-------|-------|-------|-------|-------|-------|-------|


-------|-------|-------|-------|-------|-------|-------|-------|-------|-------|
-------|-------|-------|-------|-------|-------|-------|-------|-------|-------|
-------|-------|-------|-------|-------|-------|-------|-------|-------|-------|
-------|-------|-------|-------|-------|-------|-------|-------|-------|-------|
-------|-------|-------|-------|-------|-------|-------|-------|-------|-------|
-------|-------|-------|-------|-------|-------|-------|-------|-------|-------|


-------|-------|-------|-------|-------|-------|-------|-------|-------|-------|
-------|-------|-------|-------|-------|-------|-------|-------|-------|-------|
-------|-------|-------|-------|-------|-------|-------|-------|-------|-------|
-------|-------|-------|-------|-------|-------|-------|-------|-------|-------|
-------|-------|-------|-------|-------|-------|-------|-------|-------|-------|
-------|-------|-------|-------|-------|-------|-------|-------|-------|-------|


-------|-------|-------|-------|-------|-------|-------|-------|-------|-------|
-------|-------|-------|-------|-------|-------|-------|-------|-------|-------|
-------|-------|-------|-------|-------|-------|-------|-------|-------|-------|
-------|-------|-------|-------|-------|-------|-------|-------|-------|-------|
-------|-------|-------|-------|-------|-------|-------|-------|-------|-------|
-------|-------|-------|-------|-------|-------|-------|-------|-------|-------|


-------|-------|-------|-------|-------|-------|-------|-------|-------|
-------|-------|-------|-------|-------|-------|-------|-------|-------|
-------|-------|-------|-------|-------|-------|-------|-------|-------|
-------|-------|-------|-------|-------|-------|-------|-------|-------|
-------|-------|-------|-------|-------|-------|-------|-------|-------|
-------|-------|-------|-------|-------|-------|-------|-------|-------|


                                               W
  E  E  E   E  E  E   E   E       E   E  E     E  E  E  Q
-------------------------------|-----------------------------|
-------------------------------|-----------------------------|
--9--7--9--11--L--9--11--11br--|--L--11--9--<>11--L--9--7----|
-------------------------------|-----------------------------|
-------------------------------|-----------------------------|
-------------------------------|-----------------------------|


                                     PM PM
  E  E  E   E  E  E   E   E       E  E  E   E   H
-------------------------------|-----------10\--L--------|
-------------------------------|-----7--8----------------|
--9--7--9--11--L--9--11--11br--|--L----------------------|
-------------------------------|-------------------------|
-------------------------------|-------------------------|
-------------------------------|-------------------------|


  \1/                                           W        \1/
  E   E  E   E  E  E   E   E       E   E  E     E  E  E  Q
--------------------------------|-----------------------------|
--------------------------------|-----------------------------|
--9---7--9--11--L--9--11--11br--|--L--11--9--<>11--L--9--7----|
--------------------------------|-----------------------------|
--------------------------------|-----------------------------|
--------------------------------|-----------------------------|


                  PM  PM              PM  PM
  E  E  E   E  E  E   E   E       E   E   E   E   H
-------------------------------|-------------13\--L--------|-----------|
-------------------------------|---------------------------|-----------|
--9--7--9--11--L--9--11--11br--|--L--11--12----------------|-----------|
-------------------------------|---------------------------|-----------|
-------------------------------|---------------------------|-----------|
-------------------------------|---------------------------|-----------|


-----------|-----------|-----------|-----------|-----------|-----------|
-----------|-----------|-----------|-----------|-----------|-----------|
-----------|-----------|-----------|-----------|-----------|-----------|
-----------|-----------|-----------|-----------|-----------|-----------|
-----------|-----------|-----------|-----------|-----------|-----------|
-----------|-----------|-----------|-----------|-----------|-----------|


-----------|-----------|-----------|-----------|-----------|-----------|
-----------|-----------|-----------|-----------|-----------|-----------|
-----------|-----------|-----------|-----------|-----------|-----------|
-----------|-----------|-----------|-----------|-----------|-----------|
-----------|-----------|-----------|-----------|-----------|-----------|
-----------|-----------|-----------|-----------|-----------|-----------|


-----------|-----------|-----------|-----------|-----------|-----------|
-----------|-----------|-----------|-----------|-----------|-----------|
-----------|-----------|-----------|-----------|-----------|-----------|
-----------|-----------|-----------|-----------|-----------|-----------|
-----------|-----------|-----------|-----------|-----------|-----------|
-----------|-----------|-----------|-----------|-----------|-----------|


-----------|-----------|-----------|-----------|-----------|
-----------|-----------|-----------|-----------|-----------|
-----------|-----------|-----------|-----------|-----------|
-----------|-----------|-----------|-----------|-----------|
-----------|-----------|-----------|-----------|-----------|
-----------|-----------|-----------|-----------|-----------|


   H          Q     E   E     E   E   E   E   S   S   S  S  S  S  S   S
--12----------L----13------|-----13--13------13h-17p-13----------13h-17-|
--15b---------L--------15--|--L--15--15--15-------------15----15--------|
---------------------------|-------------------------------14-----------|
---------------------------|--------------------------------------------|
---------------------------|--------------------------------------------|
---------------------------|--------------------------------------------|


                                            W
   E   E  E   E   E   E  E   E      E   E   Q    H
--15---L--L--15------15--x--17b--|--L--15-----------------|
------19--L---L--17--------------|---------19----L--------|
---------------------------------|------------------------|
---------------------------------|------------------------|
---------------------------------|------------------------|
---------------------------------|------------------------|


   E   E   E   E  E   E   Q         E   E   E   E  E   E   Q
----------20--19--L--20---------|------17--20--19--L--20---------|
--18--20-----------------18~----|--20---------------------20~----|
--------------------------------|--------------------------------|
--------------------------------|--------------------------------|
--------------------------------|--------------------------------|
--------------------------------|--------------------------------|


                                                                 W
   S  S  S  S  S  S  S  S  S  S  S  S   S  S  S  S     Q     E   E  H
--------------------17-19-20-17-19-20S-22-19-20-22-|--24b----L--24--L--------|
--17-19-20-17-19-20--------------------------------|-------------------------|
---------------------------------------------------|-------------------------|
---------------------------------------------------|-------------------------|
---------------------------------------------------|-------------------------|
---------------------------------------------------|-------------------------|


              W
   H          Q    E   E      E     E   S   S  E   E     E   S   S  E
--24b--------24----L--22--|--22--<>22---------17------<>22-------------|
--------------------------|------------18s-15-----17---------------17--|
--------------------------|---------------------------------17s-14-----|
--------------------------|--------------------------------------------|
--------------------------|--------------------------------------------|
--------------------------|--------------------------------------------|


   E   E   E   E  E   E   E   E        E   E   E   E   H
--15--14--15---------14--15--14br--|---L--12--------------------|
--------------15--L----------------|----------15--15b--L--------|
-----------------------------------|----------------------------|
-----------------------------------|----------------------------|
-----------------------------------|----------------------------|
-----------------------------------|----------------------------|


  S  S  S S  S  S  S  S  S  S  S  S  S  S  S  S
------------------------------------10-12-13-10-|
------------------10-12-13-10-12-13-------------|
--9-11-12-9-11-12-------------------------------|
------------------------------------------------|
------------------------------------------------|
------------------------------------------------|


               Slide down to 10th fret
     \1/       \1/
     E   E     E                     E  E    E   E   E
--<>12--10--<>10---------------------L--8S--10--10s--5--|
--------------------------------------------------------|
--------------------------------------------------------|
--------------------------------------------------------|
--------------------------------------------------------|
--------------------------------------------------------|


                                                          \1/
  E  E  E  E  E  E  E  E     E  E   E  E  E   E  E  E     W
--------------------7-----|----------------------7--8--|--9----------------|
--5--7--8--5--7--8-----5--|--7--8--10--7--8--10--------|-------------------|
--------------------------|----------------------------|-------------------|
--------------------------|----------------------------|-------------------|
--------------------------|----------------------------|-------------------|
--------------------------|----------------------------|-------------------|


-------|-------|-------|-------|-------|-------|-------|-------|-------|-------|
-------|-------|-------|-------|-------|-------|-------|-------|-------|-------|
-------|-------|-------|-------|-------|-------|-------|-------|-------|-------|
-------|-------|-------|-------|-------|-------|-------|-------|-------|-------|
-------|-------|-------|-------|-------|-------|-------|-------|-------|-------|
-------|-------|-------|-------|-------|-------|-------|-------|-------|-------|


-------|-------|-------|-------|-------|-------|-------|-------|-------|-------|
-------|-------|-------|-------|-------|-------|-------|-------|-------|-------|
-------|-------|-------|-------|-------|-------|-------|-------|-------|-------|
-------|-------|-------|-------|-------|-------|-------|-------|-------|-------|
-------|-------|-------|-------|-------|-------|-------|-------|-------|-------|
-------|-------|-------|-------|-------|-------|-------|-------|-------|-------|


-------|-------|-------|-------|-------|-------|-------|-------|-------|-------|
-------|-------|-------|-------|-------|-------|-------|-------|-------|-------|
-------|-------|-------|-------|-------|-------|-------|-------|-------|-------|
-------|-------|-------|-------|-------|-------|-------|-------|-------|-------|
-------|-------|-------|-------|-------|-------|-------|-------|-------|-------|
-------|-------|-------|-------|-------|-------|-------|-------|-------|-------|


-------|-------|-------|-------|-------|-------|-------|-------|-------|-------|
-------|-------|-------|-------|-------|-------|-------|-------|-------|-------|
-------|-------|-------|-------|-------|-------|-------|-------|-------|-------|
-------|-------|-------|-------|-------|-------|-------|-------|-------|-------|
-------|-------|-------|-------|-------|-------|-------|-------|-------|-------|
-------|-------|-------|-------|-------|-------|-------|-------|-------|-------|


-------|-------|-------|-------|-------|-------|-------|-------|-------|-------|
-------|-------|-------|-------|-------|-------|-------|-------|-------|-------|
-------|-------|-------|-------|-------|-------|-------|-------|-------|-------|
-------|-------|-------|-------|-------|-------|-------|-------|-------|-------|
-------|-------|-------|-------|-------|-------|-------|-------|-------|-------|
-------|-------|-------|-------|-------|-------|-------|-------|-------|-------|


-------|-------|-------||
-------|-------|-------||
-------|-------|-------||
-------|-------|-------||
-------|-------|-------||
-------|-------|-------||

Gtr IV

D||-------|-------|-------|-------|-------|-------|-------|-------|-------|
A||-------|-------|-------|-------|-------|-------|-------|-------|-------|
F||-------|-------|-------|-------|-------|-------|-------|-------|-------|
C||-------|-------|-------|-------|-------|-------|-------|-------|-------|
G||-------|-------|-------|-------|-------|-------|-------|-------|-------|
C||-------|-------|-------|-------|-------|-------|-------|-------|-------|


-------|-------|-------|-------|-------|-------|-------|-------|-------|-------|
-------|-------|-------|-------|-------|-------|-------|-------|-------|-------|
-------|-------|-------|-------|-------|-------|-------|-------|-------|-------|
-------|-------|-------|-------|-------|-------|-------|-------|-------|-------|
-------|-------|-------|-------|-------|-------|-------|-------|-------|-------|
-------|-------|-------|-------|-------|-------|-------|-------|-------|-------|


-------|-------|-------|-------|-------|-------|-------|-------|-------|-------|
-------|-------|-------|-------|-------|-------|-------|-------|-------|-------|
-------|-------|-------|-------|-------|-------|-------|-------|-------|-------|
-------|-------|-------|-------|-------|-------|-------|-------|-------|-------|
-------|-------|-------|-------|-------|-------|-------|-------|-------|-------|
-------|-------|-------|-------|-------|-------|-------|-------|-------|-------|


-------|-------|-------|-------|-------|-------|-------|-------|-------|-------|
-------|-------|-------|-------|-------|-------|-------|-------|-------|-------|
-------|-------|-------|-------|-------|-------|-------|-------|-------|-------|
-------|-------|-------|-------|-------|-------|-------|-------|-------|-------|
-------|-------|-------|-------|-------|-------|-------|-------|-------|-------|
-------|-------|-------|-------|-------|-------|-------|-------|-------|-------|


-------|-------|-------|-------|-------|-------|-------|-------|-------|-------|
-------|-------|-------|-------|-------|-------|-------|-------|-------|-------|
-------|-------|-------|-------|-------|-------|-------|-------|-------|-------|
-------|-------|-------|-------|-------|-------|-------|-------|-------|-------|
-------|-------|-------|-------|-------|-------|-------|-------|-------|-------|
-------|-------|-------|-------|-------|-------|-------|-------|-------|-------|


-------|-------|-------|-------|-------|-------|-------|-------|-------|-------|
-------|-------|-------|-------|-------|-------|-------|-------|-------|-------|
-------|-------|-------|-------|-------|-------|-------|-------|-------|-------|
-------|-------|-------|-------|-------|-------|-------|-------|-------|-------|
-------|-------|-------|-------|-------|-------|-------|-------|-------|-------|
-------|-------|-------|-------|-------|-------|-------|-------|-------|-------|


-------|-------|-------|-------|-------|-------|-------|-------|-------|-------|
-------|-------|-------|-------|-------|-------|-------|-------|-------|-------|
-------|-------|-------|-------|-------|-------|-------|-------|-------|-------|
-------|-------|-------|-------|-------|-------|-------|-------|-------|-------|
-------|-------|-------|-------|-------|-------|-------|-------|-------|-------|
-------|-------|-------|-------|-------|-------|-------|-------|-------|-------|


-------|-------|-------|-------|-------|-------|-------|-------|-------|-------|
-------|-------|-------|-------|-------|-------|-------|-------|-------|-------|
-------|-------|-------|-------|-------|-------|-------|-------|-------|-------|
-------|-------|-------|-------|-------|-------|-------|-------|-------|-------|
-------|-------|-------|-------|-------|-------|-------|-------|-------|-------|
-------|-------|-------|-------|-------|-------|-------|-------|-------|-------|


-------|-------|-------|-------|-------|-------|-------|-------|-------|-------|
-------|-------|-------|-------|-------|-------|-------|-------|-------|-------|
-------|-------|-------|-------|-------|-------|-------|-------|-------|-------|
-------|-------|-------|-------|-------|-------|-------|-------|-------|-------|
-------|-------|-------|-------|-------|-------|-------|-------|-------|-------|
-------|-------|-------|-------|-------|-------|-------|-------|-------|-------|


-------|-------|-------|-------|-------|-------|-------|-------|-------|-------|
-------|-------|-------|-------|-------|-------|-------|-------|-------|-------|
-------|-------|-------|-------|-------|-------|-------|-------|-------|-------|
-------|-------|-------|-------|-------|-------|-------|-------|-------|-------|
-------|-------|-------|-------|-------|-------|-------|-------|-------|-------|
-------|-------|-------|-------|-------|-------|-------|-------|-------|-------|


-------|-------|-------|-------|-------|-------|-------|-------|-------|-------|
-------|-------|-------|-------|-------|-------|-------|-------|-------|-------|
-------|-------|-------|-------|-------|-------|-------|-------|-------|-------|
-------|-------|-------|-------|-------|-------|-------|-------|-------|-------|
-------|-------|-------|-------|-------|-------|-------|-------|-------|-------|
-------|-------|-------|-------|-------|-------|-------|-------|-------|-------|


-------|-------|-------|-------|-------|-------|-------|-------|-------|-------|
-------|-------|-------|-------|-------|-------|-------|-------|-------|-------|
-------|-------|-------|-------|-------|-------|-------|-------|-------|-------|
-------|-------|-------|-------|-------|-------|-------|-------|-------|-------|
-------|-------|-------|-------|-------|-------|-------|-------|-------|-------|
-------|-------|-------|-------|-------|-------|-------|-------|-------|-------|


-------|-------|-------|-------|-------|-------|-------|-------|-------|-------|
-------|-------|-------|-------|-------|-------|-------|-------|-------|-------|
-------|-------|-------|-------|-------|-------|-------|-------|-------|-------|
-------|-------|-------|-------|-------|-------|-------|-------|-------|-------|
-------|-------|-------|-------|-------|-------|-------|-------|-------|-------|
-------|-------|-------|-------|-------|-------|-------|-------|-------|-------|


-------|-------|-------|-------|-------|-------|-------|-------|-------|-------|
-------|-------|-------|-------|-------|-------|-------|-------|-------|-------|
-------|-------|-------|-------|-------|-------|-------|-------|-------|-------|
-------|-------|-------|-------|-------|-------|-------|-------|-------|-------|
-------|-------|-------|-------|-------|-------|-------|-------|-------|-------|
-------|-------|-------|-------|-------|-------|-------|-------|-------|-------|


-------|-------|-------|-------|-------|-------|-------|-------|-------|-------|
-------|-------|-------|-------|-------|-------|-------|-------|-------|-------|
-------|-------|-------|-------|-------|-------|-------|-------|-------|-------|
-------|-------|-------|-------|-------|-------|-------|-------|-------|-------|
-------|-------|-------|-------|-------|-------|-------|-------|-------|-------|
-------|-------|-------|-------|-------|-------|-------|-------|-------|-------|


                                          E   E   E  E   E   E   E  E
-------|-------|-------|-------|-------|------------------------12-----|
-------|-------|-------|-------|-------|--8--10--12--8--10--12------8--|
-------|-------|-------|-------|-------|-------------------------------|
-------|-------|-------|-------|-------|-------------------------------|
-------|-------|-------|-------|-------|-------------------------------|
-------|-------|-------|-------|-------|-------------------------------|


                                      \1/
   E   E   E   E   E   E   E   E      W
--------------------------10--12--|--16----------------|-------|-------|-------|
--10--12--13--10--12--13----------|--------------------|-------|-------|-------|
----------------------------------|--------------------|-------|-------|-------|
----------------------------------|--------------------|-------|-------|-------|
----------------------------------|--------------------|-------|-------|-------|
----------------------------------|--------------------|-------|-------|-------|


-------|-------|-------|-------|-------|-------|-------|-------|-------|-------|
-------|-------|-------|-------|-------|-------|-------|-------|-------|-------|
-------|-------|-------|-------|-------|-------|-------|-------|-------|-------|
-------|-------|-------|-------|-------|-------|-------|-------|-------|-------|
-------|-------|-------|-------|-------|-------|-------|-------|-------|-------|
-------|-------|-------|-------|-------|-------|-------|-------|-------|-------|


-------|-------|-------|-------|-------|-------|-------|-------|-------|-------|
-------|-------|-------|-------|-------|-------|-------|-------|-------|-------|
-------|-------|-------|-------|-------|-------|-------|-------|-------|-------|
-------|-------|-------|-------|-------|-------|-------|-------|-------|-------|
-------|-------|-------|-------|-------|-------|-------|-------|-------|-------|
-------|-------|-------|-------|-------|-------|-------|-------|-------|-------|


-------|-------|-------|-------|-------|-------|-------|-------|-------|-------|
-------|-------|-------|-------|-------|-------|-------|-------|-------|-------|
-------|-------|-------|-------|-------|-------|-------|-------|-------|-------|
-------|-------|-------|-------|-------|-------|-------|-------|-------|-------|
-------|-------|-------|-------|-------|-------|-------|-------|-------|-------|
-------|-------|-------|-------|-------|-------|-------|-------|-------|-------|


-------|-------|-------|-------|-------|-------|-------|-------|-------|-------|
-------|-------|-------|-------|-------|-------|-------|-------|-------|-------|
-------|-------|-------|-------|-------|-------|-------|-------|-------|-------|
-------|-------|-------|-------|-------|-------|-------|-------|-------|-------|
-------|-------|-------|-------|-------|-------|-------|-------|-------|-------|
-------|-------|-------|-------|-------|-------|-------|-------|-------|-------|


-------|-------|-------|-------|-------|-------|-------|-------|-------|
-------|-------|-------|-------|-------|-------|-------|-------|-------|
-------|-------|-------|-------|-------|-------|-------|-------|-------|
-------|-------|-------|-------|-------|-------|-------|-------|-------|
-------|-------|-------|-------|-------|-------|-------|-------|-------|
-------|-------|-------|-------|-------|-------|-------|-------|-------|


-------||
-------||
-------||
-------||
-------||
-------||


Duration Legend
---------------
W - whole
H - half
Q - quarter
E - 8th
S - 16th
T - 32nd
X - 64th
. - note dotted
|-n-|  - n-tuplets


Tablature Legend
----------------
L - tied note
x - dead note
g - grace note
(n) - ghost note
> - accentuded note
NH - natural harmonic
AH - artificial harmonic
TH - tapped harmonic
SH - semi harmonic
PH - pitch harmonic
h - hammer on
p - pull off
b - bend
br - bendRelease
pb - preBend
pbr - preBendRelease
brb - bendReleaseBend
\n/ - tremolo bar dip
\n - tremolo bar dive
-/n - tremolo bar Release up
/n\ - tremolo bar inverted dip
/n - tremolo bar return
-\n - tremolo bar Release down
S - shift slide
s - legato slide
/ -  slide into from below or out of upwards
\ -  slide into from above or out of downwards
~ - vibrato
W - wide vibrato
tr - trill
TP - tremolo picking
T - tapping
S - slap
P - pop
< - fade in
^ - brush up
v - brush down
Tap to rate this tab
# A B C D E F G H I J K L M N O P Q R S T U V W X Y Z