Song name
# A B C D E F G H I J K L M N O P Q R S T U V W X Y Z

Children Of Bodom - Dont Stop At The Top tab

Tablature Legend
----------------
h	- Hammer on
p	- Pull off
/	- Slide up
\	- Slide down
b	- Bend



Song Structure:
	* Intro
	* Solo 1
	* Verse 1
	* Chorus
	* Verse 2
	* Chorus
	* Solo 1
	* Chorus2
	* Main Solo
	* Chorus3
	* Chorus till End

Intro:

E|-----------------------------------------------------------------|
B|-----------------------------------------------------------------|
G|----------------------------------------------12--10--12b~-------|
D|---------8--7-----------------------8-7--------------------------|
A|---8h10--------8-10---8-10---8h10---------8----------------------|
E|-----------------------------------------------------------------|

E|-----------------------------------------------------------------|
B|-----------------------------------------------------------------|
G|----------------------------------------------12--14b~-----------|
D|---8--7-------------------------8-7------------------------------|
A|-----------8-10---8-10---8h10---------8--------------------------|
E|-----------------------------------------------------------------|


Solo 1:

E|-----------------------------------------------------------------|
B|-----------------------------------------------------------------|
G|--12-10-12/14-12-14-15-14-12-10----------------------------------|
D|--------------------------------12-------------------------------|
A|-----------------------------------------------------------------|
E|-----------------------------------------------------------------|

E|-----------------------------------------------------------------|
B|-----------------------------------------------------------------|
G|--12-10-12/14-12-14-14/17-15-14-12-10----------------------------|
D|-----------------------------------------------------------------|
A|-----------------------------------------------------------------|
E|-----------------------------------------------------------------|

E|-----------------------------------------------------------------|
B|-----------------------------------------------------------------|
G|--12-10-12/14-12-14-15-14-12-10----------------------------------|
D|--------------------------------12-------------------------------|
A|-----------------------------------------------------------------|
E|-----------------------------------------------------------------|

E|-----------------------------------------------------------------|
B|-----------------------------------------------------------------|
G|--12-10-12/14-12-14/-17~-17p15p14p10-----------------------------|
D|------------------------------------15p14p10---------------------|
A|-------------------------------------------15p14p10--------------|
E|-----------------------------------------------------------------|
			  | Im not sure about this last part |


Riff1:

E|---------------------|
B|---------------------|
G|---------------------|
D|---------------------|
A|---------------1-----|
E|-1h3-1h3-1h31h3------|



All the Chords are Played as Power Chords
This parts are nearly the same as in the original Song
by the Scorpions

The best way is to listen to the Song to get used to the Rhythm.

The following Chords should be understood as a guide,
feel free to add some screaming
sounds. If you listen to the song you'll know what i mean.


Verse:
	2x	F, A, Riff1
	2x	F, C, D, A



Chorus (Per Line of lyric):
        A, G, F
        G, E,  A
        G, F, C, D
	D, G, A
	G, F
	D, E, A
	G, F, C, D



Chorus2:
	       A, F, A
               A

Chorus3:
        A
        G, F
	G, E, A
        G, F, C, D
Tap to rate this tab
# A B C D E F G H I J K L M N O P Q R S T U V W X Y Z