Song name
# A B C D E F G H I J K L M N O P Q R S T U V W X Y Z

Children Of Bodom - In Your Face tab

Tabbed by:Richard X
Email:grifiti_90@hotmail.com

Ok ummm i have tabed this exact song long time go, while i was still a beginner and i
that tab sucked and that it is totally wrong, but im gonna try to make the tab again (in
own version) because im still conciderd as beginner so there will be parts that will 
weird and ill try to do it again with standard tuning because im not so comfortable with
my guitar like these guys, so just try my tab out and see how you like it, and any 
and comments are welcome so email me

Tuning:

e|---------------------------------------------------------------------------|
B|---------------------------------------------------------------------------|
G|---------------------------------------------------------------------------|
D|---------------------------------------------------------------------------|
A|3333-333333-33-----3333-33-33333-------------------------------------------|
E|3333-333333-33-----3333-33-33333-------------------------------------------|
 reapat for a four times until drums comes in and all palm muted(try to play it so it
very heavy) and play it four more times after drums come in then alexi goes COW or
like that, then repeat four time until key board comes in
e|----------------------------8-8-8-10-11---8-10-11-7-10-11--|
B|repeat this twice------------8-8-8---------8-------7-------|
G|5--7--8--10--5---------------------------------------------|
D|5--5--6--8---5--5--6--2----repeat 3 times------------------|
A|3--5--6--8---3--3--4--2------------------------------------|repeat this whole thing 
2 times
E|----------------3--4--0------------------------------------|
      guitars                  keyboard.try to play this part using double tapping, 
all its keyboard.
e|8-8-8-10-11-10-10-10--11-12--11--11--11--13-15---13--13--13-13-15----------|
B|-8-8-8-------11--11--11--------11--11--11-----------13-13--13--------------|
G|---------------------------------------------------------------------------|
D|---------------------------------------------------------------------------|
A|---------------------------------------------------------------------------|
E|---------------------------------------------------------------------------|
  still keyboard, and try playing it in different ways
e|8-10-11-8--10-11----------------------------------------------------------|
B|-7-------7----------------------------------------------------------------|
G|--------------------------------------------------------------------------|
D|--------------------------------------------------------------------------|
A|--------------------------------------------------------------------------|
E|--------------------------------------------------------------------------|

e|------------------------------------------5--------------------------------|
B|---------------------------------------4-7---------------------------------|
G|--------------------------------------5------------------------------------|
D|4--1--3----4--1--3---4-1-3---------4-7-------------------------------------|
A|4--1--3--3-4--1--3-3-4-1-3-3----3-6----------------------------------------|
E|---------3---------3-------3-----------------------------------------------|

e|--------------------------------------------------------------------------|
B|--------------------------------------------------------------------------|
G|------------3-------------------------------------------------------------|
D|4-1-3---4-1-3---4-1-3-----------------------------------------------------|
A|4-1-3-3-4-1-3-3-4-1-3-4-3-3-33333333--------------------------------------|
E|------3-------3-------4-3-3-33333333--------------------------------------|
                           palm mute


e|------------------------------------------5--------------------------------|
B|---------------------------------------4-7---------------------------------|
G|--------------------------------------5------------------------------------|
D|4--1--3----4--1--3---4-1-3---------4-7-------------------------------------|
A|4--1--3--3-4--1--3-3-4-1-3-3----3-6----------------------------------------|
E|---------3---------3-------3-----------------------------------------------|


e|------------------------------|
B|------------------------------|
G|------------------------------|
D|4--1--3----4--1--3---4-1-3----|
A|4--1--3--3-4--1--3-3-4-1-3-3--|pitch harmonic like a note and whammy it up
E|---------3---------3-------3--|doesnt matter which note but choose one that
                                                                sounds good
e|---------------------------------------------------------------------------|
B|---------------------------------------------------------------------------|
G|---------------------------------------------------------------------------|
D|--------------------------------------------------5------5---8-7-8---------|
A|3------3---3-1-3-3----3---6-5----3------3---3-1-3--------------------------|
E|-3-3-33-3-3-------3-33-33---------3-3-33-3-3-------3-3-33-3-3--------------|
  palm mute the E stringed notes
e|---------------------------------------------------------------------------|
B|---------------------------------------------------------------------------|
G|---------------------------------------------------------------------------|
D|--------------------------------------------------5------5---8-7-8---------|
A|3------3---3-1-3-3----3---6-5-4--3------3---3-1-3--------------------------|
E|-3-3-33-3-3-------3-33-33-6-5-4---3-3-33-3-3-------3-3-33-3-3--------------|

e----------------------------------------------------------------------------|
B|---------------------------------------------------------------------------|
G|---------repeat this twice-------------------------------------------------|
D|----------------------------3----------------------------------------------|
A|----3---3-5-6-3-3-5-6-3---6--6-5-3------3-6-5-3-3-1-3-4-1------------------|
E|4-6---4----------------------------6-4-6----------1-3-4-1------------------|

e|------------------------------------------5--------------------------------|
B|---------------------------------------4-7---------------------------------|
G|--------------------------------------5------------------------------------|
D|4--1--3----4--1--3---4-1-3---------4-7-------------------------------------|
A|4--1--3--3-4--1--3-3-4-1-3-3----3-6----------------------------------------|
E|---------3---------3-------3-----------------------------------------------|

e|--------------------------------------------------------------------------|
B|--------------------------------------------------------------------------|
G|------------3-------------------------------------------------------------|
D|4-1-3---4-1-3---4-1-3-----------------------------------------------------|
A|4-1-3-3-4-1-3-3-4-1-3-4-3-3-33333333--------------------------------------|
E|------3-------3-------4-3-3-33333333--------------------------------------|
                        palm mute.....


e|------------------------------------------5--------------------------------|
B|---------------------------------------4-7---------------------------------|
G|--------------------------------------5------------------------------------|
D|4--1--3----4--1--3---4-1-3---------4-7-------------------------------------|
A|4--1--3--3-4--1--3-3-4-1-3-3----3-6----------------------------------------|
E|---------3---------3-------3-----------------------------------------------|


e|---------------------------------------------------------------------------|
B|---------------------------------------------------------------------------|
G|---------------------------------------------------------------------------|
D|4--1--3----4--1--3---4-1-3-------------------------------------------------|
A|4--1--3--3-4--1--3-3-4-1-3-4-3---------------------------------------------|
E|---------3---------3-------4-3---------------------------------------------|

e|---------------------------------------------------------------------------|
B|---------------------------------------------------------------------------|
G|---------------------------------------------------------------------------|
D|--------------------------------------------------5------5---8-7-8---------|
A|3------3---3-1-3-3----3---6-5----3------3---3-1-3--------------------------|
E|-3-3-33-3-3-------3-33-33---------3-3-33-3-3-------3-3-33-3-3--------------|
  palm mute the E stringed notes
e|---------------------------------------------------------------------------|
B|---------------------------------------------------------------------------|
G|---------------------------------------------------------------------------|
D|--------------------------------------------------5------5---8-7-8---------|
A|3------3---3-1-3-3----3---6-5-4--3------3---3-1-3--------------------------|
E|-3-3-33-3-3-------3-33-33-6-5-4---3-3-33-3-3-------3-3-33-3-3--------------|

e|---------------------------------------------------------------------------|
B|------palm mute and repeat twice-------------------------------------------|
G|---------------------------------------------------------------------------|
D|---------------------------------------------------------------------------|
A|3333-333333-33-----3333-33-33333-------------------------------------------|
E|3333-333333-33-----3333-33-33333-------------------------------------------|

e|----------------------------8-8-8-10-11---8-10-11-7-10-11--|
B|repeat this twice------------8-8-8---------8-------7-------|
G|5--7--8--10--5---------------------------------------------|
D|5--5--6--8---5--5--6--2----repeat 3 times------------------|
A|3--5--6--8---3--3--4--2------------------------------------|repeat this whole thing 
2 times
E|----------------3--4--0------------------------------------|
      guitars                  keyboard.try to play this part using double tapping, 
all its keyboard.
e|8-8-8-10-11-10-10-10--11-12--11--11--11--13-15---13--13--13-13-15----------|
B|-8-8-8-------11--11--11--------11--11--11----------13--13--13--------------|
G|----------------------------------------------------------repeat ----------|
D|---------------------------------------------------------this part --------|
A|---------------------------------------------------------2-----------------| more times
E|---------------------------------------------------------------------------|
e|---------------------------------------------------------------------------|

OONNN to the solo, hardest part of the song, it might b right but here it goes
e----------------------------------------------------------------------------|
B|14------------------12-15-17-19-14-----------------11-12-13-13-------------|
G|---------------11-12--------------------------11-12---------12-------------|
D|----------12-13--------------------------12-13-----------------------------|
A|-----11-14--------------------------11-14----------------------------------|
E|---------------------------------------------------------------------------|
            bend the 14 on e
e|12--------15---------12---------16-14-12------19-16-14-12------------------|
B|--12-14-12--12-14-12---12-14-12----------14-12-----------14-12-------------|
G|--------------------------------repeat this for 3 times--------------------|
D|---------------------------------------------------------------------------|
A|---------------------------------------------------------------------------|
E|---------------------------------------------------------------------------|

e11614-12------19-20--------------------------------------------------------|
B|-------14-11--------------------------------------------------------------|
G|--------------------------------------------------------------------------|
D|--------------------------------------------------------------------------|
A|--------------------------------------------------------------------------|
E|--------------------------------------------------------------------------|


| /  slide up
| \  slide down
| h  hammer-on
| p  pull-off
| ~  vibrato
| +  harmonic
| x  Mute note
===============================================================================
Tap to rate this tab
# A B C D E F G H I J K L M N O P Q R S T U V W X Y Z