Song name
# A B C D E F G H I J K L M N O P Q R S T U V W X Y Z

Children Of Bodom - She Is Beautiful tab

Artist:   Children of Bodom
Song:     She is Beautiful
Album:    Trashed, Lost & Strungout EP
Year:     2006

(Taken from the guitar pro file, I take no credit)

Intro: (Alexi)
E||----------------------|----------------------------|
B||----------------------|----------------------------|
G||----------------------|----------------------------|
D||--12s--------0--------|--12--0--7--0--12--0--5--0--|
A||----------------------|----------------------------|
D||----------------------|----------------------------|


------------------------------|----------------------------|
------------------------------|----------------------------|
------------------------------|----------------------------|
--12--0--11--0--11--12--0--7--|--12--0--7--0--12S--5----0--|
------------------------------|----------------------------|
------------------------------|----------------------------|


-----------------------------|----------------------------|
-----------------------------|----------------------------|
-----------------------------|----------------------------|
--5--0--11--0--11--12--0--7--|--12--0--5--0--12--0--3--0--|
-----------------------------|----------------------------|
-----------------------------|----------------------------|


------------------------------|----------------------------|
------------------------------|----------------------------|
------------------------------|----------------------------|
--12--0--11--0--11--12--0--7--|--12--0--7--0--12S--5----0--|
------------------------------|----------------------------|
------------------------------|----------------------------|


----------------------------|----------------------|
----------------------------|----------------------| (Alexi repeats the last note
--------7-----9-----11------|----------------------| over the next part while a
--5--0-----0-----0------12--|--(12)----------------| third guitar joins the second
----------------------------|----------------------| before continuing into the verse)
----------------------------|----------------------|


|-------------------------------------|-------------------------------|
|-------------------------------------|-------------------------------|
|-------------------------------------|-----------------7-----7-------|
|----------------5--5--5--5--0--0--0--|--0--7--7--7--7--7-----7-------|
|----------------5--5--5--5--0--0--0--|--0--7--7--7--7--5-----5-------|
|----------------5--5--5--5--0--0--0--|--0--7--7--7--7----------------|

--------------------------------|-------------------------------|
--------------------------------|-------------------------------|
--------------------------------|-------------------------------|
-----5--------------5--0--0--0--|--6--0--6--7----7S--9--7-------|
-----5--5--5--5--5--5--0--0--0--|--4--0--4--5----5S--7--5-------|
-----5--5--5--5--5--5--0--0--0--|-------------------------------|


-------------------------------|-------------------------------|
-------------------------------|-------------------------------|
-------------------------------|-----------------7-----7-------|
----------5--5--5--5--0--0--0--|--0--7--7--7--7--7-----7-------|
----------5--5--5--5--0--0--0--|--0--7--7--7--7--5-----5-------|
----------5--5--5--5--0--0--0--|--0--7--7--7--7----------------|


(Third guitar enters here)
-------------------------------|-------------------------------|
-------------------------------|-------------------------------|
-------------------------------|-----------------7-----7-------|
----------5--5--5--5--0--0--0--|--0--7--7--7--7--7-----7-------|
----------5--5--5--5--0--0--0--|--0--7--7--7--7--5-----5-------|
----------5--5--5--5--0--0--0--|--0--7--7--7--7----------------|


--------------------------------|------------------------|
--------------------------------|------------------------|
--------------------------------|------------------------|
-----5--------------5--0--0--0--|--6--0--9--7------7-----|
-----5--5--5--5--5--5--0--0--0--|--4--0--7--5------5s----|
-----5--5--5--5--5--5--0--0--0--|------------------------|


--------------------------------|------------------------|
--------------------------------|------------------------|
--------------------------------|------------------------|
-----5--------------5--0--0--0--|--6--0--9--7------7-----|
-----5--5--5--5--5--5--0--0--0--|--4--0--7--5------5s----|
-----5--5--5--5--5--5--0--0--0--|------------------------|


-------------------------------------|--------------------------|
-------------------------------------|--------------------------|
-------------------------------------|--------------------------|
-------------------------------------|--------------------------|
--0----------------------------------|--------------------------|
--0-------------0--0--0--0--0--0--0--|--0--0--0--0--0--0--0--0--|


--------------------------|--------------------------|
--------------------------|--------------------------|
--------------------------|--------------------------|
--------------------------|--------------------------|
--------------------------|--------------------------|
--0--0--0--0--0--0--0--0--|--0--0--0--0--0--0--0--0--|


Verse: (two guitars)
--------------------------|--------------------------|
--------------------------|--------------------------|
--------------------------|--------------------------|
--6--7--------6--7--------|--6--7--------6--7--------|
--4--5--0--0--4--5--0--0--|--4--5--0--0--4--5--0--0--|
--------0--0--------0--0--|--------0--0--------0--0--|


--------------------------|------------------------------|
--------------------------|------------------------------|
--------------------------|--9--11--11--11--11--7--------|
--7--5--5--5--5--7--7--7--|------------------------------|
--7--5--5--5--5--7--7--7--|--7---9---9---9---9--5--7--0--|
--7--5--5--5--5--7--7--7--|------------------------7--0--|


--------------------------|--------------------------|
--------------------------|--------------------------|
--------------------------|--------------------------|
--6--7--------6--7--------|--6--7--------6--7--------|
--4--5--0--0--4--5--0--0--|--4--5--0--0--4--5--0--0--|
--------0--0--------0--0--|--------0--0--------0--0--|


--------------------------|------------------------------|
--------------------------|------------------------------|
--------------------------|--9--11--11--11--11--7--------|
--7--5--5--5--5--7--7--7--|------------------------------|
--7--5--5--5--5--7--7--7--|--7---9---9---9---9--5--7--0--|
--7--5--5--5--5--7--7--7--|------------------------7--0--|


Pre chorus:
--------------------------|--------------------------|
--------------------------|--------------------------|
--------------------------|--------------------------|
--------------------------|-----------6--------------|
--4--5--5--5--5--5--5--5--|--7--7--7--4-----0--2--4--|
--4--5--5--5--5--5--5--5--|--7--7--7--------0--2--4--|


--------------------------|--------------------------|
--------------------------|--------------------------|
--------------------------|--------------------------|
--------------------------|--------------------------|
--0--0--0--0--0--0--0--0--|--0--7--7--0--0--7--7--0--|
--0--0--0--0--0--0--0--0--|--0--7--7--0--0--7--7--0--|


--------------------------|--------------------------|
--------------------------|--------------------------|
--------------------------|--------------------------|
--------------------------|-----------6--------------|
--4--5--5--5--4--5--5--5--|--7--7--7--4-----0--2--4--|
--4--5--5--5--4--5--5--5--|--7--7--7--------0--2--4--|


                                                      Chorus:
--------------------------|--------------------------|------------------------|
--------------------------|--------------------------|------------------------|
--------------------------|--------------------------|------------------------|
--------------------------|--------------------------|------------------------|
--0--0--0--0--0--0--0--0--|--0--7--7--0--0--7--7--0--|--5----------3----------|
--0--0--0--0--0--0--0--0--|--0--7--7--0--0--7--7--0--|--5----------3----------|


----------------------------|----------------------------|
----------------------------|----------------------------|
----------------------------|----------------------------|
----------------------------|----------------------------|
--2h--3p--2--0--------5-----|--7-------5-----5--5--5--5--|
--2h--3p--2--0--0--5-----0--|--7-------5-----5--5--5--5--|


------------------------|------------------------|----------------------------|
------------------------|------------------------|----------------------------|
------------------------|------------------------|----------------------------|
----------7-------7-----|------------------------|----------------------------|
--7-------5-------5-----|--5-------5--3-------3--|--2h--3p--2--0--------5-----|
--7------------------0--|--5----0--5--3----0--3--|--2h--3p--2--0--0--5-----0--|


----------------------------|------------------------|
----------------------------|------------------------|
----------------------------|------------------------|
----------------------------|----------7-------7-----|
--7-------5-----5--5--5--5--|--7-------5-------5-----|
--7-------5-----5--5--5--5--|--7------------------0--|


--------------------------|-------------------------------|
--------------------------|-------------------------------|
--------------------------|-------------------------------|
--------------------------|-------------------------------|
--0-----------------------|-------------------------------|
--0--0--0--0--0--0--0--0--|--0--0--0--0--0--0--0----0--0--|


--------------------------------------|
--------------------------------------|
--------------------------------------|
--------------------------------------|
--------------------------------------|
--0--0--0--0--0--0--0--0--0--0--0--0--|


                                                    Verse:
--------------------------------------------------|--------------------------|
--------------------------------------------------|--------------------------|
--------------------------------------------------|--------------------------|
--------------------------------------------------|--6--7--------6--7--------|
--------------------------------------------------|--4--5--0--0--4--5--0--0--|
--0--0--0--0--0--0--0--0--0--0--0--0--0--0--0--0--|--------0--0--------0--0--|



--------------------------|--------------------------|
--------------------------|--------------------------|
--------------------------|--------------------------|
--6--7--------6--7--------|--7--5--5--5--5--7--7--7--|
--4--5--0--0--4--5--0--0--|--7--5--5--5--5--7--7--7--|
--------0--0--------0--0--|--7--5--5--5--5--7--7--7--|


------------------------------|--------------------------|
------------------------------|--------------------------|
--9--11--11--11--11--7--------|--------------------------|
------------------------------|--6--7--------6--7--------|
--7---9---9---9---9--5--7--0--|--4--5--0--0--4--5--0--0--|
------------------------7--0--|--------0--0--------0--0--|


--------------------------|--------------------------|
--------------------------|--------------------------|
--------------------------|--------------------------|
--6--7--------6--7--------|--7--5--5--5--5--7--7--7--|
--4--5--0--0--4--5--0--0--|--7--5--5--5--5--7--7--7--|
--------0--0--------0--0--|--7--5--5--5--5--7--7--7--|


                                 Pre chorus:
------------------------------|--------------------------|
------------------------------|--------------------------|
--9--11--11--11--11--7--------|--------------------------|
------------------------------|--------------------------|
--7---9---9---9---9--5--7--0--|--4--5--5--5--5--5--5--5--|
------------------------7--0--|--4--5--5--5--5--5--5--5--|


--------------------------|--------------------------|
--------------------------|--------------------------|
--------------------------|--------------------------|
-----------6--------------|--------------------------|
--7--7--7--4-----0--2--4--|--0--0--5--5--5--5--5--5--|
--7--7--7--------0--2--4--|--0--0--0--0--0--0--0--0--|


--------------------------|--------------------------|
--------------------------|--------------------------|
--------------------------|--------------------------|
--------------------------|--------------------------|
--0--7--7--0--0--7--7--0--|--4--5--5--5--4--5--5--5--|
--0--7--7--0--0--7--7--0--|--4--5--5--5--4--5--5--5--|


--------------------------|--------------------------|
--------------------------|--------------------------|
--------------------------|--------------------------|
-----------6--------------|--------------------------|
--7--7--7--4-----0--2--4--|--0--0--5--5--5--5--5--5--|
--7--7--7--------0--2--4--|--0--0--0--0--0--0--0--0--|


--------------------------|--------------------------|
--------------------------|--------------------------|
--------------------------|--------------------------|
--------------------------|--------------------------|
--0--7--7--0--0--7--7--0--|--4--5--5--5--4--5--5--5--|
--0--7--7--0--0--7--7--0--|--4--5--5--5--4--5--5--5--|


--------------------------|--------------------------|-------------------------|
--------------------------|--------------------------|-------------------------|
--------------------------|--------------------------|-------------------------|
-----------6--------------|--------7--7--6--7--7--7--|-------------------------|
--7--7--7--4-----0--2--4--|--0--0--5--5--4--5--5--5--|-----5-----5-----5--7----|
--7--7--7--------0--2--4--|--0--0--------------------|-----5-----5-----5--7----|


--------------------------|--------------------------|
--------------------------|--------------------------|
--------------------------|--------------------------|
--------------------------|-----------6--------------|
--4--5--5--5--4--5--5--5--|--7--7--7--4-----0--2--4--|
--4--5--5--5--4--5--5--5--|--7--7--7--------0--2--4--|


                                 Chorus:
--------------------------|-----|------------------------|
--------------------------|-----|------------------------|
--------------------------|-----|------------------------|
--------7--7--7--7--7--7--|-----|------------------------|
--0--0--5--5--5--5--5--5--|-----|--5----------3-------3--|
--0--0--------------------|-----|--5----------3-------3--|


----------------------------|----------------------------|
----------------------------|----------------------------|
----------------------------|----------------------------|
----------------------------|----------------------------|
--2h--3p--2--0--------5-----|--7-------5-----5--5--5--5--|
--2h--3p--2--0--0--5-----0--|--7-------5-----5--5--5--5--|


------------------------|------------------------|----------------------------|
------------------------|------------------------|----------------------------|
------------------------|------------------------|----------------------------|
----------7-------7-----|------------------------|----------------------------|
--7-------5-------5-----|--5-------5--3-------3--|--2h--3p--2--0--------5-----|
--7------------------0--|--5----0--5--3----0--3--|--2h--3p--2--0--0--5-----0--|


----------------------------|------------------------|
----------------------------|------------------------|
----------------------------|------------------------|
----------------------------|----------7-------7-----|
--7-------5-----5--5--5--5--|--7-------5-------5-----|
--7-------5-----5--5--5--5--|--7------------------0--|


Bridge:
--------------------------|--------------------------|
--------------------------|--------------------------|
--7--7--7--7--7--7--7--7--|--7--7--7--7--7--7--7--7--|
--7--7--7--7--7--7--7--7--|--7--7--7--7--7--7--7--7--|
--5--5--5--5--5--5--5--5--|--5--5--5--5--5--5--5--5--|
--------------------------|--------------------------|


--------------------------|--------------------------|
--------------------------|--------------------------|
--------------------------|--------------------------|
--5--5--5--5--5--5--5--5--|--5--5--5--5--5--5--5--5--|
--5--5--5--5--5--5--5--5--|--5--5--5--5--5--5--5--5--|
--5--5--5--5--5--5--5--5--|--5--5--5--5--5--5--5--5--|


--------------------------|--------------------------|
--------------------------|--------------------------|
--------------------------|--------------------------|
--7--7--7--7--7--7--7--7--|--7--7--7--7--7--7--7--7--|
--7--7--7--7--7--7--7--7--|--7--7--7--7--7--7--7--7--|
--7--7--7--7--7--7--7--7--|--7--7--7--7--7--7--7--7--|


--------------------------|------------------------|--------------------------|
--------------------------|------------------------|--------------------------|
--7--7--7--7--7--7--7--7--|--7--7--7--7------------|--7--7--7--7--7--7--7--7--|
--7--7--7--7--7--7--7--7--|--7--7--7--7--5----7----|--7--7--7--7--7--7--7--7--|
--5--5--5--5--5--5--5--5--|--5--5--5--5--5----7----|--5--5--5--5--5--5--5--5--|
--------------------------|--------------5----7----|--------------------------|


------------------------|--------------------------|--------------------------|
------------------------|--------------------------|--------------------------|
--7--7------------7--7--|--------------------------|--------------------------|
--7--7--5----7----7--7--|--5--5--5--5--5--5--5--5--|--5--5--5--5--5--5--5--5--|
--5--5--5----7----5--5--|--5--5--5--5--5--5--5--5--|--5--5--5--5--5--5--5--5--|
--------5----7----------|--5--5--5--5--5--5--5--5--|--5--5--5--5--5--5--5--5--|


--------------------------|--------------------------|
--------------------------|--------------------------|
--------------------------|--------------------------|
--7--7--7--7--7--7--7--7--|--7--7--7--7--7--7--7--7--|
--7--7--7--7--7--7--7--7--|--7--7--7--7--7--7--7--7--|
--7--7--7--7--7--7--7--7--|--7--7--7--7--7--7--7--7--|


--------------------------|------------------------|
--------------------------|------------------------|
--7--7--7--7--7--7--7--7--|--7--7--7--7------------|
--7--7--7--7--7--7--7--7--|--7--7--7--7--5----7----|
--5--5--5--5--5--5--5--5--|--5--5--5--5--5----7----|
--------------------------|--------------5----7----|


Pre chorus:
-------------------------------|-------------------------|
-------------------------------|-------------------------|
-------------------------------|-----------------7-------|
-----5--------------5--0-------|-----7--7--7--7--7-------|
-----5--5--5--5--5--5--0-------|-----7--7--7--7--5-------|
-----5--5--5--5--5--5--0-------|-----7--7--7--7----------|


--------------------------------|--------------------------|
--------------------------------|--------------------------|
--------------------------------|--------------------------|
-----5--------------5--0--------|--------------------------|
-----5--5--5--5--5--5--0-----0--|--4--0--4--5----5S--7--5--|
-----5--5--5--5--5--5--0--------|--------------------------|


--------------------------|--------------------------|
--------------------------|--------------------------|
--------------------------|-----------------7-----7--|
-----5--5--5--5--0--0--0--|--0--7--7--7--7--7-----7--|
-----5--5--5--5--0--0--0--|--0--7--7--7--7--5-----5--|
-----5--5--5--5--0--0--0--|--0--7--7--7--7-----------|


--------------------------------|-----------------------|
--------------------------------|-----------------------|
--------------------------------|-----------------------|
-----5--------------5--0--0--0--|--6--0--9--7-----------|
-----5--5--5--5--5--5--0--0--0--|--4--0--7--5-----------|
-----5--5--5--5--5--5--0--0--0--|-----------------------|


Chorus:
------------------------|----------------------------|
------------------------|----------------------------|
------------------------|----------------------------|
------------------------|----------------------------|
--5----------3----------|--2h--3p--2--0--------5-----|
--5----------3----------|--2h--3p--2--0--0--5-----0--|


----------------------------|------------------------|------------------------|
----------------------------|------------------------|------------------------|
----------------------------|------------------------|------------------------|
----------------------------|----------7-------7-----|------------------------|
--7-------5-----5--5--5--5--|--7-------5-------5-----|--5-------5--3-------3--|
--7-------5-----5--5--5--5--|--7------------------0--|--5----0--5--3----0--3--|


----------------------------|--------------------------|
----------------------------|--------------------------|
----------------------------|--------------------------|
----------------------------|--------------------------|
--2h--3p--2--0--------5-----|--7-------5-----5--5--5-5-|
--2h--3p--2--0--0--5-----0--|--7-------5-----5--5--5-5-|


------------------------|------------------------|----------------------------|
------------------------|------------------------|----------------------------|
------------------------|------------------------|----------------------------|
----------7-------7-----|------------------------|----------------------------|
--7-------5-------5-----|--5----------3----------|--2h--3p--2--0--------5-----|
--7------------------0--|--5----------3----------|--2h--3p--2--0--0--5-----0--|


--------------------------|------------------------|------------------------|
--------------------------|------------------------|------------------------|
--------------------------|------------------------|------------------------|
--------------------------|----------7-------7-----|------------------------|
--7-------5-----5--5--5-5-|--7-------5-------5-----|--5-------5--3-------3--|
--7-------5-----5--5--5-5-|--7------------------0--|--5----0--5--3----0--3--|

 
----------------------------|------------------------|-----------------------|
----------------------------|------------------------|-----------------------|
----------------------------|------------------------|-----------------------|
----------------------------|------------------------|----------7------------|
--2h--3p--2--0--------5-----|--7-------5-----5----5--|--7-------5------------|
--2h--3p--2--0--0--5-----0--|--7-------5-----5----5--|--7--------------------|


Bridge/Outro:
--------------------------|--------------------------|
--------------------------|--------------------------|
--7--7--7--7--7--7--7--7--|--7--7--7--7--7--7--7--7--|
--7--7--7--7--7--7--7--7--|--7--7--7--7--7--7--7--7--|
--5--5--5--5--5--5--5--5--|--5--5--5--5--5--5--5--5--|
--------------------------|--------------------------|


--------------------------|--------------------------|
--------------------------|--------------------------|
--------------------------|--------------------------|
--5--5--5--5--5--5--5--5--|--5--5--5--5--5--5--5--5--|
--5--5--5--5--5--5--5--5--|--5--5--5--5--5--5--5--5--|
--5--5--5--5--5--5--5--5--|--5--5--5--5--5--5--5--5--|


--------------------------|--------------------------|
--------------------------|--------------------------|
--------------------------|--------------------------|
--7--7--7--7--7--7--7--7--|--7--7--7--7--7--7--7--7--|
--7--7--7--7--7--7--7--7--|--7--7--7--7--7--7--7--7--|
--7--7--7--7--7--7--7--7--|--7--7--7--7--7--7--7--7--|


--------------------------|------------------------|--------------------------|
--------------------------|------------------------|--------------------------|
--7--7--7--7--7--7--7--7--|--7--7--7--7------------|--7--7--7--7--7--7--7--7--|
--7--7--7--7--7--7--7--7--|--7--7--7--7--5----7----|--7--7--7--7--7--7--7--7--|
--5--5--5--5--5--5--5--5--|--5--5--5--5--5----7----|--5--5--5--5--5--5--5--5--|
--------------------------|--------------5----7----|--------------------------|


------------------------|--------------------------|--------------------------|
------------------------|--------------------------|--------------------------|
--7--7------------7--7--|--------------------------|--------------------------|
--7--7--5----7----7--7--|--5--5--5--5--5--5--5--5--|--5--5--5--5--5--5--5--5--|
--5--5--5----7----5--5--|--5--5--5--5--5--5--5--5--|--5--5--5--5--5--5--5--5--|
--------5----7----------|--5--5--5--5--5--5--5--5--|--5--5--5--5--5--5--5--5--|


--------------------------|--------------------------|
--------------------------|--------------------------|
--------------------------|--------------------------|
--7--7--7--7--7--7--7--7--|--7--7--7--7--7--7--7--7--|
--7--7--7--7--7--7--7--7--|--7--7--7--7--7--7--7--7--|
--7--7--7--7--7--7--7--7--|--7--7--7--7--7--7--7--7--|


--------------------------|------------------------||
--------------------------|------------------------||
--7--7--7--7--7--7--7--7--|--7--7--7--7------------||
--7--7--7--7--7--7--7--7--|--7--7--7--7--5----7----||
--5--5--5--5--5--5--5--5--|--5--5--5--5--5----7----||
--------------------------|--------------5----7----||

Tap to rate this tab
# A B C D E F G H I J K L M N O P Q R S T U V W X Y Z