Song name
# A B C D E F G H I J K L M N O P Q R S T U V W X Y Z

Children Of Bodom - The Final Countdown tab

Help us improve GuitareTab! Take a short survey!
 The Final Countdown
Tabbed by greg H. any questions, my email is virtuoso_20@hotmail.com  (this is my first 
TO THE SONG FOR THE TIMING.
G|----8-6-8-----9-8-9-8--6~~9-8-9--------6-4-6-4-3-6-4~~~|8-6-8----9-8-9-8-6-|
D|-6~~-------6~~-------------------6~4~~-----------------|------6~-----------|
A|-------------------------------------------------------|-------------------|
E|-------------------------------------------------------|-------------------|

G|-9-8-9-------6-4-6-4-3-6-4~~-6-4-6~--6-4-8-6-4------/9-8~~-8h9p8p6-8~~6-8-|
D|--------6-4~~----------------------------------8-6~-----------------------|
A|--------------------------------------------------------------------------|
E|--------------------------------------------------------------------------|

G|---------------------|------------------------------9--------|
D|-6~~--6-----9-8---6~~|--6-6-8-9-8-6~~--6~~--6-6-8-9---6~~--6~|
A|--------9-6-----9----|---------------9-------------------9---|
E|---------------------|---------------------------------------|

G|----------------------------------------------------------------6-8-6-----|
D|--6-6-8-9-8-6~---6~~-9-8-6-----------6~~8-9-8-6------6h8-9~-9-9-------9-6-|
A|---------------9-----------9-9~--6-9------------9-9~~---------------------|
E|--------------------------------------------------------------------------|

G|----6------------------------------------------|
D|--9----9-8-6~~-8-9-6-----6-8-8~~-6-6-8-9-8-8-6~|
A|---------------------9-9-----------------------|
E|-----------------------------------------------|

solo 1
G|-------13-------13----13-----11-----11---11-------16-------16----16-|
D|-11-11----11-11----11----9-9----9-9----9----14-14----14-14----14----|
A|--------------------------------------------------------------------|
E|--------------------------------------------------------------------|

G|-----9-----9---9------------------------------6~~~~---|
D|-7-7---7-7---7---7-6-4~~6-7-6-4---------------------6-|
A|--------------------------------7-7--6--4--2----------|
E|------------------------------------------------------|

G|-------13-------13----13-----11-----11---11-------16-------16----16-|
D|-11-11----11-11----11----9-9----9-9----9----14-14----14-14----14----|
A|--------------------------------------------------------------------|
E|--------------------------------------------------------------------|

G|-----9-----9---9------------------6--4~-----------------------|
D|-7-7---7-7---7---7-6-4~~6-7-6-4----------------6~~~8~~~-11-8~~|
A|--------------------------------7--------7--9-----------------|
E|--------------------------------------------------------------|

G|----8-6-8-----9-8-9-8--6~~9-8-9--------6-4-6-4-3-6-4~~~|8-6-8----9-8-9-8-6-|
D|-6~~-------6~~-------------------6~4~~-----------------|------6~-----------|
A|-------------------------------------------------------|-------------------|
E|-------------------------------------------------------|-------------------|

G|-9-8-9-------6-4-6-4-3-6-4~~-6-4-6~--6-4-8-6-4------/9-8~~-8h9p8p6-8~~6-8-|
D|--------6-4~~----------------------------------8-6~-----------------------|
A|--------------------------------------------------------------------------|
E|--------------------------------------------------------------------------|

G|---------------------|---------------------------|-------------------------|
D|-6~~--6-----9-8---6~~|--6------------4-----------|-2-----------------------|
A|--------9-6-----9----|--6------------4-----------|-2-----------------------|
E|---------------------|--4------------2-----------|-0-0-0-0-0-0-0-0-0-0-0-0-|

G|------------------------|----------------------------|---------------|
D|-4----------------------|-9-------------8------------|-6-------------|
A|-4----------------------|-9-------------8------------|-6-------------|
E|-2-2-2-2-2-2-2-2-2-2-2-2|-7-7-7-7-7-7-7-6-6-6-6-6-6-6|-4-4-4-4-4-4-4-|

G|--------------|---------------------|----------------------|
D|-4------------|-2-------------------|-4--------------------|
A|-4------------|-2-------------------|-4--------------------|
E|-2-2-2-2-2-2-2|-0-------------------|-2--------------------|

G|-------------------------------------|
D|-4----4----4----4----4----4----4----4|
A|-2-22-2-22-2-22-2-22-2-22-2-22-2-22-2|
E|-------------------------------------|

G|-8-------8-------9-------9-------8-------8---------------- play--| 2x
D|---6-8-9---6-8-9---6-8-9---6-8-9---6-8-9---6-8-9-8-6-------------|
A|-----------------------------------------------------9-9~~-------|
E|-----------------------------------------------------------------|

now play the intro to the end.

thats the best i can do for now. i hope it helps you out.
Related for The Final Countdown tab