Song name
# A B C D E F G H I J K L M N O P Q R S T U V W X Y Z

Children Of Bodom - Punch Me I Bleed tab

-------------------------------------------------------------------------------
			 Punch me i bleed solo - Children of Bodom
-------------------------------------------------------------------------------
TaTabbed by:KORG101
Email:arifzakwan2020@yahoo.com

this is only the ending of the solo with the fast licks, i tabbed it because the
guitar pro's solo was incorrect
Tuning: Drop c


e|20-17-18-20-18-17--------------------------------------------------------------------------------|
B|------------------20-18-17-18-20-18-17-----------------------------------------------------------|
G|---------------------------------------19-17-15-17-19-17-15-17-15--------------------------------|
D|------------------------------------------------------------------19-17-15-17-19-17-15-----------|
A|--------------------------------------------------------------------------------------19-17-15-17|
E|-------------------------------------------------------------------------------------------------|
Tap to rate this tab
# A B C D E F G H I J K L M N O P Q R S T U V W X Y Z