Song name
# A B C D E F G H I J K L M N O P Q R S T U V W X Y Z

Children Of Bodom - Bastards Of Bodom tab


D-----------------------------------------------------------------------------|
A-----------------------------------------------------------------------------|
F----10---10--9~~---10---10--9~~----10---9---------14----14-12----14----14-12-|
C-/8----8---------8----8----------8----8---8---/12----12-------12----12-------|
G-----------------------------------------------------------------------------|
C-----------------------------------------------------------------------------|


D----------------------------------------------------------------------------|
A----------------------------------------------------------------------------|
F----14----12----7-5-7-7/9-7-9-9/10-9-10-10/12-10-12-12/14-12-14-14/15-14-15-|
C-12----12-------------------------------------------------------------------|
G----------------------------------------------------------------------------|
C----------------------------------------------------------------------------|

D--------------------------------------------------10-10-----10-10----10--|
A--------------------------------------------------10-10-----10-10----10--|
F-15/17-15-17--17/19-17-19-19/20-19-20-20b-----12b-------12b-------12b----|
C-------------------------------------------------------------------------|
G-------------------------------------------------------------------------|
C-------------------------------------------------------------------------|


D---12-13-12-10------------------------------------------------------------|
A-----------------13-12-10-13-12-10------10-12-10-13-10-12-10--------------|
F------------------------------------13------------------------------------|
C--------------------------------------------------------------------------|
G--------------------------------------------------------------------------|
C--------------------------------------------------------------------------|

D---------------------------------------------------------------------------|
A-------10-12-10------------------------------------------------------------|
F---13------------13-12-10-12ph-----12-10-----------------------------------|
C-----------------------------------------12-10-----------------------------|
G-----------------------------------------------12-10---/13-----------------|
C---------------------------------------------------------------------------|


D--------------------------------------------------------17-18-20-17-18-20-|
A------------------------------------16-18-20--16-18-20--------------------|
F----------------------17-17-15-15-----------------------------------------|
C--15-15-15-14-14-14-------------------------------------------------------|
G--------------------------------------------------------------------------|
C--------------------------------------------------------------------------|


D--22-18-20-22-20-18---22-18-20-22-20-18---22-18-20-22-20-18---22-18-20b--|
A-------------------------------------------------------------------------|
F-------------------------------------------------------------------------|
C-------------------------------------------------------------------------|
G-------------------------------------------------------------------------|
C-------------------------------------------------------------------------|
Tap to rate this tab
# A B C D E F G H I J K L M N O P Q R S T U V W X Y Z