Song name
# A B C D E F G H I J K L M N O P Q R S T U V W X Y Z

Children Of Bodom - Blooddrunk tab

Children Of Bodom
Blooddrunk
Solo

|---------------------------------------------------------14------17b21-|
|---2------x~~~~~------5-------------10-------13b14-----------14--------|
|-4b6------x~~~~~----7b9-----0*---12b14---0*----------------------------|
|-----------------------------------------------------------------------|
|-----------------------------------------------------------------------|
|-----------------------------------------------------------------------|
*doop down

|-21r17--16-14-21--19h21p19-17------19-17-19--15h19p15------17-15-------|
|--------------------------------17--------------------15----------18b19|
|---------------------------------------------------------16------------|
|-----------------------------------------------------------------------|
|-----------------------------------------------------------------------|
|-----------------------------------------------------------------------|


|---------14---------------------------------------------------21-17-19-|
|------------17-14-17~~~~~-14-16-17-19-16-17-19-21-17-19-21-22----------|
|-----------------------------------------------------------------------|
|-----------------------------------------------------------------------|
|-----------------------------------------------------------------------|
|-----------------------------------------------------------------------|


|-21-22-19-21-22-24-21-22-24-24b26-----24b26--r24--21----------21----|
|-----------------------------------------------------22----24----22-|
|--------------------------------------------------------21----------|
|--------------------------------------------------------------------|
|--------------------------------------------------------------------|
|--------------------------------------------------------------------|


|-22----24-21-19----21----22-19-17----19----21-17-17\14----16----17--14-|
|----22----------21----21----------19----19-------------15----15--------|
|-----------------------------------------------------------------------|
|-----------------------------------------------------------------------|
|-----------------------------------------------------------------------|
|-----------------------------------------------------------------------|


b -Bend Up
r -release
\ - slide down
~ -vibrato
x~ -pick scrape
h - hammer on 
p - pull off
Tap to rate this tab
# A B C D E F G H I J K L M N O P Q R S T U V W X Y Z