Song name
# A B C D E F G H I J K L M N O P Q R S T U V W X Y Z

Children Of Bodom - Touch Like An Angel Of Death tab

D)------5------6------5------3-|
A)-----3-3----3-3----3-3----3-3|                                      3
F)-----------------------------|    X4     last time without to last 3-3
C)-----------------------------|
G)-----------------------------|
C)-----------------------------|



D)-17-17-17-17--------5---6---5---3------------|
A)-------------------3-333-333-333-33----------|
F)---------------------------------------------|
C)---------------------------------------------|    X3
G)---------------------------------------------|
C)---------------------------------------------|

D)----5---6--------------|
A)---3-333-333-----------|
F)-----------------------|
C)--------------7-5-3-2--|
G)--------------5-3-1-0--|
C)-----------------------|
Tap to rate this tab
 
# A B C D E F G H I J K L M N O P Q R S T U V W X Y Z