Song name
# A B C D E F G H I J K L M N O P Q R S T U V W X Y Z

Children Of Bodom - Northern Comfort tab

Northern Comfort               


                   Transcribed by Equestional
Track 1



      E   E  E   E   E   E  E   E   
E||--13------9--13--14------9--14--|
B||------11-------------11---------|
G||--------------------------------|
D||--------------------------------|
A||--------------------------------|
E||--------------------------------|


   E  E  E   E   E  E  E   E   
--13-----9--13--11-----8--11--|
------9-------------9---------|
------------------------------|
------------------------------|
------------------------------|
------------------------------|


   E   E  E   E   E   E  E   E   
--13------9--13--14------9--14--|
------11-------------11---------|
--------------------------------|
--------------------------------|
--------------------------------|
--------------------------------|


   E  E  E   E   E  E  E   E   
--13-----9--13--11-----8--11--|
------9-------------9---------|
------------------------------|
------------------------------|
------------------------------|
------------------------------|


   E   E  E   E   E   E  E   E   
--13------9--13----------9--14--|
------11-------------11---------|
-----------------11-------------|
--------------------------------|
--------------------------------|
--------------------------------|


   E  E  E   E   E  E  E   E   
--13-----9--13--11-----8--11--|
------9-------------9---------|
------------------------------|
------------------------------|
------------------------------|
------------------------------|


   E   E  E   E   E   E  E   E   
--13------9--13--14------9--14--|
------11-------------11---------|
--------------------------------|
--------------------------------|
--------------------------------|
--------------------------------|


   E  E  E   E   E  E  E   E   
--13-----9--13--11-----8--11--|
------9-------------9---------|
------------------------------|
------------------------------|
------------------------------|
------------------------------|


  W                  
--9----------------||
--9----------------||
-------------------||
-------------------||
-------------------||
-------------------||




Duration Legend
---------------
W - whole
H - half
Q - quarter
E - 8th
S - 16th
T - 32nd
X - 64th
. - note dotted
|-n-|  - n-tuplets


Tablature Legend
----------------
L - tied note
x - dead note
g - grace note
(n) - ghost note
> - accentuded note
NH - natural harmonic
AH - artificial harmonic
TH - tapped harmonic
SH - semi harmonic
PH - pitch harmonic
h - hammer on
p - pull off
b - bend
br - bendRelease
pb - preBend
pbr - preBendRelease
brb - bendReleaseBend
\n/ - tremolo bar dip
\n - tremolo bar dive
-/n - tremolo bar Release up
/n\ - tremolo bar inverted dip
/n - tremolo bar return
-\n - tremolo bar Release down
S - shift slide
s - legato slide
/ -  slide into from below or out of upwards
\ -  slide into from above or out of downwards
~ - vibrato
W - wide vibrato
tr - trill
TP - tremolo picking
T - tapping
S - slap
P - pop
< - fade in
^ - brush up
v - brush down
Tap to rate this tab
 
# A B C D E F G H I J K L M N O P Q R S T U V W X Y Z