Song name
# A B C D E F G H I J K L M N O P Q R S T U V W X Y Z

Children Of Bodom - One Day You Will Cry tab

                            CHILDREN OF BODOM
                           One Day You Will Cry
                                Blooddrunk
                                  *2008*


Tuning: Drop C (CGCFAD)

176 BPM

This is my version of One Day You Will Cry. I am very confident about it, everything
correct to me. It's the result of ear-transcribing and watching some live videos. Once, I
had the opportunity to ask Alexi himself about some parts. Any corrections? Post it as a 
and I will take a look. Please rate and comment! This is just the Intro, but I
tab the rest later.
Enjoy!

INTRO
Gtr. 1
D|-------------------------------------------------------------------------|
A|-------------------------------------------------------------------------|
F|-------------------------------------------------------------------------|
C|-----5---------------7---5---2-3-----5-----------------------------------|
G|---7-----8---5-7---8---0---3-------7-----8---5-7---5-7---8---8-10--------|
C|-0-----0---0-----0---------------0-----0---0-----5-----7---8-------------|
   .     .   .     .     .   .     .     .   .     .     .   .

Gtr. 2
D|-------------------------------------------------------------------------|
A|-------------------------------------------------------------------------|
F|-------------------------------------------------------------------------|
C|-0---------------------------------0-0-----------5-----7-----8-10--------|
G|-0---------------------------------0-0-----------5-----7-----8-10--------|
C|-0---------------------------------0-0-----------5-----7-----8-10--------|

Gtr. 1
D|-------------------------------------------------------------------------|
A|------------------------------------------------------------6-5----------|
F|----------------------------------------------------------5--------------|
C|-----5---------------7---5---2-3-----5------------------5----------------|
G|---7-----8---5-7---8---0---3-------7-----8---5-7----7-8------------------|
C|-0-----0---0-----0---------------0-----0---0-----10----------------------|
   .     .   .     .     .   .     .     .   .

Gtr. 2
D|-------------------------------------------------------------------------|
A|------------------------------------------------------------6-5----------|
F|----------------------------------------------------------5--------------|
C|---------0-------------------------0-0-----------------------------------|
G|---0-0---0-------------------------0-0--------------7-8------------------|
C|---0-0---0-------------------------0-0-----------10-----7----------------|
     . .

Gtr. 1
D|-------------------------------------------------------------------------|
A|-------------------------------------------------------------------------|
F|-------------------------------------------------------------------------|
C|-----5---------------7---5---2-3-----5-----------------------------------|
G|---7-----8---5-7---8---0---3-------7-----8---5-7---5-7---8---8-10--------|
C|-0-----0---0-----0---------------0-----0---0-----5-----7---8-------------|
   .     .   .     .     .   .     .     .   .     .     .   .

Gtr. 2
D|-------------------------------------------------------------------------|
A|-------------------------------------------------------------------------|
F|-------------------------------------------------------------------------|
C|---------0-------------------------0-0-----------5-----7-----8-10--------|
G|---0-0---0-------------------------0-0-----------5-----7-----8-10--------|
C|---0-0---0-------------------------0-0-----------5-----7-----8-10--------|
     . .

Gtr. 1
D|-------------------------------------------------------------------------|
A|-------------------------------------------------------------------------|
F|-------------------------------------------------------------------------|
C|-----5---------------7---5---2-3-----5----------------------7-5----------|
G|---7-----8---5-7---8---0---3-------7-----8---5-7----7-8---5--------------|
C|-0-----0---0-----0---------------0-----0---0-----10-----8----------------|
   .     .   .     .     .   .     .     .   .


D|-------------------------------------------------------------------------|
A|------------------------------------------------------------6-5----------|
F|----------------------------------------------------------5--------------|
C|---------12------------------12\X\---------------------------------------|
G|---0-0---12------------------12\X\-0-0--------------7-8------------------|
C|---0-0---12------------------12\X\-0-0-----------10-----7----------------|
     . .

Gtr. 1
D|-------------------------------------------------------------------------|
A|-------------------------------------------------------------------------|
F|-------------------------------------------------------------------------|
C|-0--0--0-----0-----0--0---0--0-------7-----7-----------------------------|
G|-0--0--0-----0-----0--0---0--0---6-6---6-6-------------------------------|
C|-0--0--0-----0-----0--0---0--0-------------------------------------------|
                                       +     +

Gtr. 2
D|-------------------------------------------------------------------------|
A|-------------------------------------------------------------------------|
F|-------------------------------------------------------------------------|
C|-------------------------------------7-----7-----------------------------|
G|---------------------------------6-6---6-6-------------------------------|
C|-------------------------------------------------------------------------|
                                       +     +

************************************
| .   palm mute
| /   slide up
| \   slide down
| h   hammer-on
| p   pull-off
| ~   vibrato
| +   harmonic
| x   Mute note
| b   Bend
| pb  Pre-bend
| br  Bend release
| pbr Pre-bend release
| brb Bend release bend

************************************
Tap to rate this tab
 
# A B C D E F G H I J K L M N O P Q R S T U V W X Y Z