Children Of Bodom - In Your Face tab

This is my interpretation of Alexiís guitar part made for a fun playable version.
Solo is 100% correct.
The rest is mostly correct (see bracketed comments and the variations between live and 
versions)
Note there is no Palm Muting marks because I donít think you need them (just listen to 
song and you should be able to figure it out).

Tuning is Drop C

Opening Riff Played 8 times
||--------------------------------|--------------------------------||
||o-------------------------------|-------------------------------o||
||--------------------------------|--------------------------------||
||--------------------------------|--------------------------------||
||o-------------------------------|-------------------------------o||
||--0-0-0-0---0-0-0-0-0-0---0-0---|-0-0-0-0---0---0---0-0-0-0-0----||

||---------------------------------|
||---------------------------------|
||-----2---3---5-------2---3-------|
||--0--2---3---5---7---2---3-------|
||--0--0---1---3---5---0---1---1---|
||--0--------------0-----------1---|

Main Riff
||-------------------------------------------|
||-------------------------------------------|
||--------------------------------------4-7--|
||-----------------------------------3-6-----|
||-------------------------------2-5---------|
||6-3-5-0--6-3-555-000-6-3-5-2-6-------------|

||--------------------------------------------------|
||--------------------------------------------------|
||--------------------------------------------------|
||--------------------------------------5-5-5-5-5-5-|
||----------------------------------0-0-3-3-3-3-3-3-|
||6-3-5-0--6-3-10-10-10-000-6-3-5-2-0-0-------------|

||-------------------------------------------|
||-------------------------------------------|
||--------------------------------------4-7--|
||-----------------------------------3-6-----|
||6-3-5-0--6-3-555-000-6-3-5-2-6-2-5---------|
||6-3-5-0--6-3-555-000-6-3-5-2-6-------------|

||-----------------------------------------------------------------|
||-----------------------------------------------------------------|
||--- Donít pick, depress whammy bar->2p0-3*N.H Pull up whammy bar-|
||-----------------------------------------------------------------|
||6-3-5-0--6-3--------------6-3-5-2--------------------------------|
||6-3-5-0--6-3-10-10-10-000-6-3-5-2--------------------------------|

(Note you can do the harmonic pull up from 3, 5, or 7 on the g/f string (or g and 
f and a), but Iíve seen Alexi alternate between 3 and 5)


 Verse
|--------------------------------------------------------------|
|--------------------------------------------------------------|
|--------------------------------------------------------------|
|--------------------------------------------------------10-9--|
|-5---------------5-------5p3h5--5---------------5--------8-7--|
|---0-0-0---0-0-0---0-0-0----------0-0-0---0-0-0---0-0-0-------|

|--------------------------------------------------------------------|
|--------------------------------------------------------------------|
|--------------------------------------------------------------------|
|----------------------------------7---------------7-------9p10-9p10-|
|-5---------------5-------1p0-1p0----0-0-0---0-0-0---0-0-0-----------|
|---0-0-0---0-0-0---0-0-0--------------------------------------------|

|-------------------------------------------------------------------------|
|-------------------------------------------------------------------------|
|-------------------------------------------Pick and slide these cords----|
|------------------------------------------------4\3\2----7\6\5-----------|
|-5---------------5-------5p3h5--5---------------5\4\3-Or-5\4\3-----------|
|---0-0-0---0-0-0---0-0-0----------0-0-0---0-0-0--------------------------|

|--------------------------------------------------------------------|
|--------------------------------------------------------------------|
|--------------------------------------------------------------------|
|----------------------------------7---------------7-------9p10-9p10-|
|-5---------------5-------1p0-1p0----0-0-0---0-0-0---0-0-0-----------|
|---0-0-0---0-0-0---0-0-0--------------------------------------------|

Bridge
||-----------------------------------------------------------|
||-----------------------------------------------------------|
||-----------------------------------------------------------|
||------------------0---2---3--0------------------5----------|
||--1-1-3-1-5-1---1---1---1----------5-7-8------8---8-7-5----|
||-------------------------------0-0--------0-0--------------|

||--------------------------------------------------------|
||--------------------------------------------------------|
||--------------------------------------------------------|
||------------------0---2---3--0--------------------3-2---|
||--1-1-3-1-5-1---1---1---1----------5-7-8----------1-0---|
||-------------------------------0-0-------0--0h3h5-------|

||-----------------------------------------------------------|
||-----------------------------------------------------------|
||-----------------------------------------------------------|
||------------------0---2---3--0------------------5----------|
||--1-1-3-1-5-1---1---1---1----------5-7-8------8---8-7-5----|
||-------------------------------0-0--------0-0--------------|

||-----------------------------------------------------------|
||-----------------------------------------------------------|
||-----------------------------------------------------------|
||------------------0---2---3--0-----------------------------|
||--1-1-3-1-5-1---1---1---1----------5-7-8----------1p0----0-|
||-------------------------------0-0-------0--0h3h5------6---|

Main Riff
||-------------------------------------------|
||-------------------------------------------|
||--------------------------------------4-7--|
||-----------------------------------3-6-----|
||-------------------------------2-5---------|
||6-3-5-0--6-3-555-000-6-3-5-2-6-------------|

||--------------------------------------------------|
||--------------------------------------------------|
||--------------------------------------------------|
||--------------------------------------5-5-5-5-5-5-|
||----------------------------------0-0-3-3-3-3-3-3-|
||6-3-5-0--6-3-10-10-10-000-6-3-5-2-0-0-------------|

||-------------------------------------------|
||-------------------------------------------|
||--------------------------------------4-7--|
||-----------------------------------3-6-----|
||6-3-5-0--6-3-555-000-6-3-5-2-6-2-5---------|
||6-3-5-0--6-3-555-000-6-3-5-2-6-------------|

||-----------------------------------------------------------------|
||-----------------------------------------------------------------|
||--- Donít pick, depress whammy bar->5p0-7*N.H Pull up whammy bar-|
||-----------------------------------------------------------------|
||6-3-5-0--6-3--------------6-3-5-2--------------------------------|
||6-3-5-0--6-3-10-10-10-000-6-3-5-2--------------------------------|

(Again note you can do the harmonic pull up from 5, or 7 on the g/f string (or g and 
f and a), Iíve seen Alexi alternate between 5 and 7)

Verse
|--------------------------------------------------------------|
|--------------------------------------------------------------|
|--------------------------------------------------------------|
|--------------------------------------------------------10-9--|
|-5---------------5-------5p3h5--5---------------5--------8-7--|
|---0-0-0---0-0-0---0-0-0----------0-0-0---0-0-0---0-0-0-------|

|--------------------------------------------------------------------|
|--------------------------------------------------------------------|
|--------------------------------------------------------------------|
|----------------------------------7---------------7-------9p10-9p10-|
|-5---------------5-------1p0-1p0----0-0-0---0-0-0---0-0-0-----------|
|---0-0-0---0-0-0---0-0-0--------------------------------------------|

|-------------------------------------------------------------------------|
|-------------------------------------------------------------------------|
|-------------------------------------------Pick and slide these cords----|
|--------------------------------------------------4\3\2----7\6\5---------|
|-Ď5í---------------5-------5p3h5--5---------------5\4\3-Or-5\4\3---------|
|----0-0-0---0-0-0---0-0-0----------0-0-0---0-0-0-------------------------|
Emphasise the first 5 by either picking harder or making it a chord.

|--------------------------------------------------------------------|
|--------------------------------------------------------------------|
|--------------------------------------------------------------------|
|----------------------------------7---------------7-------9p10-9p10-|
|-5---------------5-------1p0-1p0----0-0-0---0-0-0---0-0-0-----------|
|---0-0-0---0-0-0---0-0-0--------------------------------------------|



Opening Riff x 2
||--------------------------------|--------------------------------||
||o-------------------------------|-------------------------------o||
||--------------------------------|--------------------------------||
||--------------------------------|--------------------------------||
||o-------------------------------|-------------------------------o||
||--0-0-0-0---0-0-0-0-0-0---0-0---|-0-0-0-0---0---0---0-0-0-0-0----||
A short pick slide followed by a finger slide at the end of second round if you like 
can hear a subtle one on the album).

||--------------------------------------|
||--------------------------------------|
||-----2---3---5-------2---3--5ó4*P.H~--|
||--0--2---3---5---7---2---3--5---------|
||--0--0---1---3---5---0---1--3---------|
||--0--------------0--------------------|
The pinch harmonic is not on the album but Iíve seen Alexi do this in live shows.

||-----------------------------------------------------------|
||-----------------------------------------------------------|
||-----2---3---5-------2---3---------------------------------|
||--0--2---3---5---7---2---3---------------------------------|
||--0--0---1---3---5---0---1---------------------------------|
||--0--------------0----------0-0-0-0---0---0---0-0-0-0-0----|
			      (Might be on 1?)
Solo
Learn this solo in these Steps to make it easier.

Bend Whole Step
|---11--11------------------------------------11-16-|
|---14b-14b------------------------------11-13------|
|---------------------------------11-13-------------|
|---------------------11-13-10-13-------------------|
|---------------10-13-------------------------------|
|---------------------------------------------------|

Bend Whole Step
|-11--11---------------------14----|
|-14b-14b----10/11---10/11---14----|
|------------11/12-X-11/12-X-------|
|------------10/11-X-10/11-X-------|
|----------------------------------|
|--------0-0-----------------------|

Each bend is a Whole Step
|---14b--11--------16b--14--------14b--11---------16b--14------------|
|-----------14-11----------16-14----------14-11-----------16-14------|
|--------------------------------------------------------------------|
|--------------------------------------------------------------------|
|--------------------------------------------------------------------|
|--------------------------------------------------------------------|

3X
|-18-16-------21-16-------|
|-------19-16-------19-16-|
|-------------------------|
|-------------------------|
|-------------------------|
|-------------------------|

Pick once and bend	    Pick once and bend and release whole step
|--------------------------15b-13----|
|---13 bend and release X3~-------15-|
|------------------------------------|
|------------------------------------|
|------------------------------------|
|------------------------------------|

Bend Whole Step and release before next bend
|--21b--21b--21b--21bó21b hold bend and tap 23~~--|
|-------------------------------------------------|
|-------------------------------------------------|
|-------------------------------------------------|
|-------------------------------------------------|
|-------------------------------------------------|


|-13-12-10-13-12-10-------10----------------------------------------------|
|-------------------13-12----13-12-10-13-12-10-13-12-10-------10----------|
|-------------------------------------------------------13-12----13-12-10-|
|-------------------------------------------------------------------------|
|-------------------------------------------------------------------------|
|-------------------------------------------------------------------------|

Album Ending						Bend whole step
|------------------------------------------------20----20-22b~----|
|---15p13h15/17p15h17/18p17h18/20p18h20-22-20-22----22------------|
|---^--------^--------^--------^----------------------------------|
|-(Pick these notes and depress whammy bar as you go)-------------|
|-----------------------------------------------------------------|
|-----------------------------------------------------------------|

Live ending...approximately
|-----------------------------------------------------------------|
|---15p13h15/17p15h17/18p17h18/20p18h20---------------------------|
|---^--------^--------^--------^--------17*N.H-Pull up whammy bar-|
|-(Pick these notes and depress whammy bar as you go)-------------|
|-----------------------------------------------------------------|
|-----------------------------------------------------------------|
Note that 17 N.H you need to slightly depress the whammy bar before picking the note and 
you can pull up and hold until you hear the following cord during the keyboard solo

||----------------------------------------------------------------|
||----------------------------------------------------------------|
||----------------------------------------------------------------|
||0--3--7---------3-2-3--7-555-7-8-5-----3--7--------3-2----------|
||0--1--5---------1-0-1--5-----------8-5-1--5--------1-0----------|
||0--------0h3h5-------------------------------0h3h5--------------|
			    ^Between here ^
		    |Probably not right but its close|
Bridge
||-----------------------------------------------------------|
||-----------------------------------------------------------|
||-----------------------------------------------------------|
||------------------0---2---3--0------------------5----------|
||--1-1-3-1-5-1---1---1---1----------5-7-8------8---8-7-5----|
||-------------------------------0-0--------0-0--------------|

||--------------------------------------------------------|
||--------------------------------------------------------|
||--------------------------------------------------------|
||------------------0---2---3--0--------------------3-2---|
||--1-1-3-1-5-1---1---1---1----------5-7-8----------1-0---|
||-------------------------------0-0-------0--0h3h5-------|

||-----------------------------------------------------------|
||-----------------------------------------------------------|
||-----------------------------------------------------------|
||------------------0---2---3--0------------------5----------|
||--1-1-3-1-5-1---1---1---1----------5-7-8------8---8-7-5----|
||-------------------------------0-0--------0-0--------------|

||----------------------------------------------------------------|
||----------------------------------------------------------------|
||----------------------------------------------------------------|
||------------------0---2---3--0----------------------------------|
||--1-1-3-1-5-1---1---1---1----------5-7-8------------------------|
||-------------------------------0-0-------0--0h3-6*P.H~~--6*P.H~~|
				Slight Pinch Harmonics with decent vibrato

Main Riff with Sweep Arpeggio
||-----------------------------------------3-6p6----|
||---------------------------------------5-------5--|
||-----------------------------------3-6------------|
||---------------------------------5----------------|
||-------------------------------7------------------|
||6-3-5-0--6-3-555-000-6-3-5-2-6--------------------|

||--------------------------------------------------|
||--------------------------------------------------|
||--------------------------------------------------|
||--------------------------------------5-5-5-5-5-5-|
||----------------------------------0-0-3-3-3-3-3-3-|
||6-3-5-0--6-3-10-10-10-000-6-3-5-2-0-0-------------|

||-------------------------------------------|
||-------------------------------------------|
||--------------------------------------4-7--|
||-----------------------------------3-6-----|
||6-3-5-0--6-3-555-000-6-3-5-2-6-2-5---------|
||6-3-5-0--6-3-555-000-6-3-5-2-6-------------|

||-----------------------------------------------------------------|
||-----------------------------------------------------------------|
||-----------------------------------------------------------------|
||-----------------------------------------------------------------|
||6-3-5-0--6-3--------------6-3-5-2-0------------------------------|
||6-3-5-0--6-3-10-10-10-000-6-3-5-2-0-12/0-Fingerslide-------------|
Or end with a pick slide

Or Live
||-----------------------------------------------------------------|
||-----------------------------------------------------------------|
||----------------------------------3*N.H-and depress whammy-bar---|
||-----------------------------------------------------------------|
||6-3-5-0--6-3--------------6-3-5-2--------------------------------|
||6-3-5-0--6-3-10-10-10-000-6-3-5-2---12/0-Fingerslide-------------|
Or end with a pick slide

Opening Riff
||--------------------------------|--------------------------------||
||o-------------------------------|-------------------------------o||
||--------------------------------|--------------------------------||
||--------------------------------|--------------------------------||
||o-------------------------------|-------------------------------o||
||--0-0-0-0---0-0-0-0-0-0---0-0---|-0-0-0-0---0---0---0-0-0-0-0----||

Played four times on album version.

Live ending
||--------------------------------|Depress whammy bar before picking-N.H-||
||--------------------------------|-----------------15*N.H---------------||
||--------------------------------|-----------------15*N.H---------------||
||--------------------------------|--------------------------------------||
||--------------------------------|--------------------------------------||
||--0-0-0-0---0-0-0-0-0-0---0-0---|-0-0-0-0---0---0----------------------||
							   Pull up whammy Bar

||--------------------------------------|
||--------------------------------------|
||-----2---3---5-------2---3--5ó4*P.H~--|
||--0--2---3---5---7---2---3--5---------|
||--0--0---1---3---5---0---1--3---------|
||--0--------------0--------------------|
The pinch harmonic is not on the album but Iíve seen Alexi do this in live shows.

Ending
||--------------------------------------------|-------------------------||
||--------------------------------------------|-------------------------||
||-----2---3---5-------2---3------------------|-------------------------||
||--0--2---3---5---7---2---3------------------|-------------------------||
||--0--0---1---3---5---0---1------------------|-----------------------1-||
||--0--------------0---------1-1-1-1-1-1---1-1|-1-1-1-1---1---1-1-1-1-1-||


Enjoy.

Any corrections or comments just message me through Ultimate Guitar.

jeffmetalhead
Tap to rate this tab
 
# A B C D E F G H I J K L M N O P Q R S T U V W X Y Z